  0
SECTION
  2
HEADER
  9
$ACADVER
  1
AC1018
  9
$ACADMAINTVER
 70
     0
  9
$DWGCODEPAGE
  3
ANSI_932
  9
$INSBASE
 10
0.0
 20
0.0
 30
0.0
  9
$EXTMIN
 10
-2100.0
 20
-1485.0
 30
0.0
  9
$EXTMAX
 10
2100.0
 20
1485.0
 30
0.0
  9
$LIMMIN
 10
-2100.0
 20
-1485.0
  9
$LIMMAX
 10
2100.0
 20
1485.0
  9
$ORTHOMODE
 70
     0
  9
$REGENMODE
 70
     1
  9
$FILLMODE
 70
     1
  9
$QTEXTMODE
 70
     0
  9
$MIRRTEXT
 70
     1
  9
$LTSCALE
 40
10.0
  9
$ATTMODE
 70
     1
  9
$TEXTSIZE
 40
2.5
  9
$TRACEWID
 40
1.0
  9
$TEXTSTYLE
  7
Standard
  9
$CLAYER
  8
0
  9
$CELTYPE
  6
ByLayer
  9
$CECOLOR
 62
   256
  9
$CELTSCALE
 40
1.0
  9
$DISPSILH
 70
     0
  9
$DIMSCALE
 40
1.0
  9
$DIMASZ
 40
2.5
  9
$DIMEXO
 40
0.625
  9
$DIMDLI
 40
3.75
  9
$DIMRND
 40
0.0
  9
$DIMDLE
 40
0.0
  9
$DIMEXE
 40
1.25
  9
$DIMTP
 40
0.0
  9
$DIMTM
 40
0.0
  9
$DIMTXT
 40
2.5
  9
$DIMCEN
 40
2.5
  9
$DIMTSZ
 40
0.0
  9
$DIMTOL
 70
     0
  9
$DIMLIM
 70
     0
  9
$DIMTIH
 70
     0
  9
$DIMTOH
 70
     0
  9
$DIMSE1
 70
     0
  9
$DIMSE2
 70
     0
  9
$DIMTAD
 70
     1
  9
$DIMZIN
 70
     8
  9
$DIMBLK
  1

  9
$DIMASO
 70
     1
  9
$DIMSHO
 70
     1
  9
$DIMPOST
  1

  9
$DIMAPOST
  1

  9
$DIMALT
 70
     0
  9
$DIMALTD
 70
     3
  9
$DIMALTF
 40
0.03937007874016
  9
$DIMLFAC
 40
1.0
  9
$DIMTOFL
 70
     1
  9
$DIMTVP
 40
0.0
  9
$DIMTIX
 70
     0
  9
$DIMSOXD
 70
     0
  9
$DIMSAH
 70
     0
  9
$DIMBLK1
  1

  9
$DIMBLK2
  1

  9
$DIMSTYLE
  2
ISO-25
  9
$DIMCLRD
 70
     0
  9
$DIMCLRE
 70
     0
  9
$DIMCLRT
 70
     0
  9
$DIMTFAC
 40
1.0
  9
$DIMGAP
 40
0.625
  9
$DIMJUST
 70
     0
  9
$DIMSD1
 70
     0
  9
$DIMSD2
 70
     0
  9
$DIMTOLJ
 70
     0
  9
$DIMTZIN
 70
     8
  9
$DIMALTZ
 70
     0
  9
$DIMALTTZ
 70
     0
  9
$DIMUPT
 70
     0
  9
$DIMDEC
 70
     2
  9
$DIMTDEC
 70
     2
  9
$DIMALTU
 70
     2
  9
$DIMALTTD
 70
     3
  9
$DIMTXSTY
  7
Standard
  9
$DIMAUNIT
 70
     0
  9
$DIMADEC
 70
     0
  9
$DIMALTRND
 40
0.0
  9
$DIMAZIN
 70
     0
  9
$DIMDSEP
 70
    44
  9
$DIMATFIT
 70
     3
  9
$DIMFRAC
 70
     0
  9
$DIMLDRBLK
  1

  9
$DIMLUNIT
 70
     2
  9
$DIMLWD
 70
    -2
  9
$DIMLWE
 70
    -2
  9
$DIMTMOVE
 70
     0
  9
$LUNITS
 70
     2
  9
$LUPREC
 70
     4
  9
$SKETCHINC
 40
1.0
  9
$FILLETRAD
 40
10.0
  9
$AUNITS
 70
     0
  9
$AUPREC
 70
     0
  9
$MENU
  1
.
  9
$ELEVATION
 40
0.0
  9
$PELEVATION
 40
0.0
  9
$THICKNESS
 40
0.0
  9
$LIMCHECK
 70
     0
  9
$CHAMFERA
 40
10.0
  9
$CHAMFERB
 40
10.0
  9
$CHAMFERC
 40
20.0
  9
$CHAMFERD
 40
0.0
  9
$SKPOLY
 70
     0
  9
$TDCREATE
 40
2458442.47956132
  9
$TDUCREATE
 40
2458442.10456132
  9
$TDUPDATE
 40
2458442.479561331
  9
$TDUUPDATE
 40
2458442.104561331
  9
$TDINDWG
 40
0.0000000116
  9
$TDUSRTIMER
 40
0.0000000116
  9
$USRTIMER
 70
     1
  9
$ANGBASE
 50
0.0
  9
$ANGDIR
 70
     0
  9
$PDMODE
 70
     0
  9
$PDSIZE
 40
0.0
  9
$PLINEWID
 40
0.0
  9
$SPLFRAME
 70
     0
  9
$SPLINETYPE
 70
     6
  9
$SPLINESEGS
 70
     8
  9
$HANDSEED
  5
60E
  9
$SURFTAB1
 70
     6
  9
$SURFTAB2
 70
     6
  9
$SURFTYPE
 70
     6
  9
$SURFU
 70
     6
  9
$SURFV
 70
     6
  9
$UCSBASE
  2

  9
$UCSNAME
  2

  9
$UCSORG
 10
0.0
 20
0.0
 30
0.0
  9
$UCSXDIR
 10
1.0
 20
0.0
 30
0.0
  9
$UCSYDIR
 10
0.0
 20
1.0
 30
0.0
  9
$UCSORTHOREF
  2

  9
$UCSORTHOVIEW
 70
     0
  9
$UCSORGTOP
 10
0.0
 20
0.0
 30
0.0
  9
$UCSORGBOTTOM
 10
0.0
 20
0.0
 30
0.0
  9
$UCSORGLEFT
 10
0.0
 20
0.0
 30
0.0
  9
$UCSORGRIGHT
 10
0.0
 20
0.0
 30
0.0
  9
$UCSORGFRONT
 10
0.0
 20
0.0
 30
0.0
  9
$UCSORGBACK
 10
0.0
 20
0.0
 30
0.0
  9
$PUCSBASE
  2

  9
$PUCSNAME
  2

  9
$PUCSORG
 10
0.0
 20
0.0
 30
0.0
  9
$PUCSXDIR
 10
1.0
 20
0.0
 30
0.0
  9
$PUCSYDIR
 10
0.0
 20
1.0
 30
0.0
  9
$PUCSORTHOREF
  2

  9
$PUCSORTHOVIEW
 70
     0
  9
$PUCSORGTOP
 10
0.0
 20
0.0
 30
0.0
  9
$PUCSORGBOTTOM
 10
0.0
 20
0.0
 30
0.0
  9
$PUCSORGLEFT
 10
0.0
 20
0.0
 30
0.0
  9
$PUCSORGRIGHT
 10
0.0
 20
0.0
 30
0.0
  9
$PUCSORGFRONT
 10
0.0
 20
0.0
 30
0.0
  9
$PUCSORGBACK
 10
0.0
 20
0.0
 30
0.0
  9
$USERI1
 70
     0
  9
$USERI2
 70
     0
  9
$USERI3
 70
     0
  9
$USERI4
 70
     0
  9
$USERI5
 70
     0
  9
$USERR1
 40
0.0
  9
$USERR2
 40
0.0
  9
$USERR3
 40
0.0
  9
$USERR4
 40
0.0
  9
$USERR5
 40
0.0
  9
$WORLDVIEW
 70
     1
  9
$SHADEDGE
 70
     3
  9
$SHADEDIF
 70
    70
  9
$TILEMODE
 70
     1
  9
$MAXACTVP
 70
    64
  9
$PINSBASE
 10
0.0
 20
0.0
 30
0.0
  9
$PLIMCHECK
 70
     0
  9
$PEXTMIN
 10
1.000000000000000E+20
 20
1.000000000000000E+20
 30
1.000000000000000E+20
  9
$PEXTMAX
 10
-1.000000000000000E+20
 20
-1.000000000000000E+20
 30
-1.000000000000000E+20
  9
$PLIMMIN
 10
0.0
 20
0.0
  9
$PLIMMAX
 10
420.0
 20
297.0
  9
$UNITMODE
 70
     0
  9
$VISRETAIN
 70
     1
  9
$PLINEGEN
 70
     0
  9
$PSLTSCALE
 70
     1
  9
$TREEDEPTH
 70
  3020
  9
$CMLSTYLE
  2
Standard
  9
$CMLJUST
 70
     0
  9
$CMLSCALE
 40
20.0
  9
$PROXYGRAPHICS
 70
     1
  9
$MEASUREMENT
 70
     1
  9
$CELWEIGHT
370
    -1
  9
$ENDCAPS
280
     0
  9
$JOINSTYLE
280
     0
  9
$LWDISPLAY
290
     0
  9
$INSUNITS
 70
     4
  9
$HYPERLINKBASE
  1

  9
$STYLESHEET
  1

  9
$XEDIT
290
     1
  9
$CEPSNTYPE
380
     0
  9
$PSTYLEMODE
290
     1
  9
$FINGERPRINTGUID
  2
{B821E785-FAB5-4724-AFC1-F501BAFB916E}
  9
$VERSIONGUID
  2
{FAEB1C32-E019-11D5-929B-00C0DF256EC4}
  9
$EXTNAMES
290
     1
  9
$PSVPSCALE
 40
0.0
  9
$OLESTARTUP
290
     0
  9
$SORTENTS
280
   127
  9
$INDEXCTL
280
     0
  9
$HIDETEXT
280
     1
  9
$XCLIPFRAME
290
     0
  9
$HALOGAP
280
     0
  9
$OBSCOLOR
 70
   257
  9
$OBSLTYPE
280
     0
  9
$INTERSECTIONDISPLAY
280
     0
  9
$INTERSECTIONCOLOR
 70
   257
  9
$DIMASSOC
280
     2
  9
$PROJECTNAME
  1

  0
ENDSEC
  0
SECTION
  2
CLASSES
  0
CLASS
  1
ACDBDICTIONARYWDFLT
  2
AcDbDictionaryWithDefault
  3
ObjectDBX Classes
 90
        0
 91
        4
280
     0
281
     0
  0
CLASS
  1
VISUALSTYLE
  2
AcDbVisualStyle
  3
ObjectDBX Classes
 90
     4095
 91
        4
280
     0
281
     0
  0
ENDSEC
  0
SECTION
  2
TABLES
  0
TABLE
  2
VPORT
  5
8
330
0
100
AcDbSymbolTable
 70
     1
  0
VPORT
  5
29
330
8
100
AcDbSymbolTableRecord
100
AcDbViewportTableRecord
  2
*Active
 70
     0
 10
0.0
 20
0.0
 11
1.0
 21
1.0
 12
0.0
 22
0.0
 13
0.0
 23
0.0
 14
10.0
 24
10.0
 15
10.0
 25
10.0
 16
0.0
 26
0.0
 36
1.0
 17
0.0
 27
0.0
 37
0.0
 40
3267.0
 41
1.414141414141414
 42
50.0
 43
0.0
 44
0.0
 50
0.0
 51
0.0
 71
     0
 72
 10000
 73
     1
 74
     3
 75
     0
 76
     0
 77
     0
 78
     0
281
     0
 65
     1
110
0.0
120
0.0
130
0.0
111
1.0
121
0.0
131
0.0
112
0.0
122
1.0
132
0.0
 79
     0
146
0.0
  0
ENDTAB
  0
TABLE
  2
LTYPE
  5
5
330
0
100
AcDbSymbolTable
 70
     5
  0
LTYPE
  5
14
330
5
100
AcDbSymbolTableRecord
100
AcDbLinetypeTableRecord
  2
ByBlock
 70
     0
  3

 72
    65
 73
     0
 40
0.0
  0
LTYPE
  5
15
330
5
100
AcDbSymbolTableRecord
100
AcDbLinetypeTableRecord
  2
ByLayer
 70
     0
  3

 72
    65
 73
     0
 40
0.0
  0
LTYPE
  5
16
330
5
100
AcDbSymbolTableRecord
100
AcDbLinetypeTableRecord
  2
Continuous
 70
     0
  3
Solid line
 72
    65
 73
     0
 40
0.0
  0
LTYPE
  5
3C
330
5
100
AcDbSymbolTableRecord
100
AcDbLinetypeTableRecord
  2
JWW_CENTER1
 70
     0
  3
-----  --  ----------  --  -----
 72
    65
 73
     4
 40
6.773333333333333
 49
4.233333333333333
 74
     0
 49
-0.8466666666666667
 74
     0
 49
0.8466666666666667
 74
     0
 49
-0.8466666666666667
 74
     0
  0
LTYPE
  5
3D
330
5
100
AcDbSymbolTableRecord
100
AcDbLinetypeTableRecord
  2
JWW_DASHED2
 70
     0
  3
--    ----    ----    ----    --
 72
    65
 73
     2
 40
3.386666666666667
 49
1.693333333333333
 74
     0
 49
-1.693333333333333
 74
     0
  0
LTYPE
  5
3E
330
5
100
AcDbSymbolTableRecord
100
AcDbLinetypeTableRecord
  2
JWW_CENTER2
 70
     0
  3
-------------  --  -------------
 72
    65
 73
     4
 40
13.54666666666667
 49
11.00666666666667
 74
     0
 49
-0.8466666666666667
 74
     0
 49
0.8466666666666667
 74
     0
 49
-0.8466666666666667
 74
     0
  0
LTYPE
  5
3F
330
5
100
AcDbSymbolTableRecord
100
AcDbLinetypeTableRecord
  2
JWW_DASHED3
 70
     0
  3
---  ------  ------  ------  ---
 72
    65
 73
     2
 40
3.386666666666667
 49
2.54
 74
     0
 49
-0.8466666666666667
 74
     0
  0
ENDTAB
  0
TABLE
  2
LAYER
  5
2
330
0
100
AcDbSymbolTable
 70
    17
  0
LAYER
  5
10
330
2
100
AcDbSymbolTableRecord
100
AcDbLayerTableRecord
  2
0
 70
     0
 62
     7
  6
Continuous
370
    -3
390
F
  0
LAYER
  5
40
330
2
100
AcDbSymbolTableRecord
100
AcDbLayerTableRecord
  2
D-2
 70
     0
 62
     7
  6
Continuous
370
    -1
390
F
  0
LAYER
  5
41
330
2
100
AcDbSymbolTableRecord
100
AcDbLayerTableRecord
  2
F-5ﾚｲﾔ
 70
     0
 62
     7
  6
Continuous
370
    -1
390
F
  0
LAYER
  5
42
330
2
100
AcDbSymbolTableRecord
100
AcDbLayerTableRecord
  2
D-4
 70
     0
 62
     7
  6
Continuous
370
    -1
390
F
  0
LAYER
  5
43
330
2
100
AcDbSymbolTableRecord
100
AcDbLayerTableRecord
  2
D-0
 70
     0
 62
     7
  6
Continuous
370
    -1
390
F
  0
LAYER
  5
44
330
2
100
AcDbSymbolTableRecord
100
AcDbLayerTableRecord
  2
D-5
 70
     0
 62
     7
  6
Continuous
370
    -1
390
F
  0
LAYER
  5
45
330
2
100
AcDbSymbolTableRecord
100
AcDbLayerTableRecord
  2
D-A
 70
     0
 62
     7
  6
Continuous
370
    -1
390
F
  0
LAYER
  5
46
330
2
100
AcDbSymbolTableRecord
100
AcDbLayerTableRecord
  2
F-4ﾚｲﾔ
 70
     0
 62
     7
  6
Continuous
370
    -1
390
F
  0
LAYER
  5
47
330
2
100
AcDbSymbolTableRecord
100
AcDbLayerTableRecord
  2
D-1
 70
     0
 62
     7
  6
Continuous
370
    -1
390
F
  0
LAYER
  5
48
330
2
100
AcDbSymbolTableRecord
100
AcDbLayerTableRecord
  2
D-6
 70
     0
 62
     7
  6
Continuous
370
    -1
390
F
  0
LAYER
  5
49
330
2
100
AcDbSymbolTableRecord
100
AcDbLayerTableRecord
  2
D-9
 70
     0
 62
     7
  6
Continuous
370
    -1
390
F
  0
LAYER
  5
4A
330
2
100
AcDbSymbolTableRecord
100
AcDbLayerTableRecord
  2
C-A
 70
     0
 62
     7
  6
Continuous
370
    -1
390
F
  0
LAYER
  5
4B
330
2
100
AcDbSymbolTableRecord
100
AcDbLayerTableRecord
  2
C-1
 70
     0
 62
     7
  6
Continuous
370
    -1
390
F
  0
LAYER
  5
4C
330
2
100
AcDbSymbolTableRecord
100
AcDbLayerTableRecord
  2
C-2
 70
     0
 62
     7
  6
Continuous
370
    -1
390
F
  0
LAYER
  5
4D
330
2
100
AcDbSymbolTableRecord
100
AcDbLayerTableRecord
  2
C-4
 70
     0
 62
     7
  6
Continuous
370
    -1
390
F
  0
LAYER
  5
4E
330
2
100
AcDbSymbolTableRecord
100
AcDbLayerTableRecord
  2
C-5
 70
     0
 62
     7
  6
Continuous
370
    -1
390
F
  0
LAYER
  5
4F
330
2
100
AcDbSymbolTableRecord
100
AcDbLayerTableRecord
  2
C-9
 70
     0
 62
     7
  6
Continuous
370
    -1
390
F
  0
ENDTAB
  0
TABLE
  2
STYLE
  5
3
330
0
100
AcDbSymbolTable
 70
     2
  0
STYLE
  5
11
330
3
100
AcDbSymbolTableRecord
100
AcDbTextStyleTableRecord
  2
Standard
 70
     0
 40
0.0
 41
1.0
 50
0.0
 71
     0
 42
2.5
  3
txt
  4

1001
ACAD
1000

1071
        0
  0
STYLE
  5
3B
330
3
100
AcDbSymbolTableRecord
100
AcDbTextStyleTableRecord
  2
ＭＳ ゴシック
 70
     0
 40
1.0
 41
1.0
 50
0.0
 71
     0
 42
10.0
  3

  4

1001
ACAD
1000
MS Gothic
1071
    32817
  0
ENDTAB
  0
TABLE
  2
VIEW
  5
6
330
0
100
AcDbSymbolTable
 70
     0
  0
ENDTAB
  0
TABLE
  2
UCS
  5
7
330
0
100
AcDbSymbolTable
 70
     0
  0
ENDTAB
  0
TABLE
  2
APPID
  5
9
330
0
100
AcDbSymbolTable
 70
     1
  0
APPID
  5
12
330
9
100
AcDbSymbolTableRecord
100
AcDbRegAppTableRecord
  2
ACAD
 70
     0
  0
ENDTAB
  0
TABLE
  2
DIMSTYLE
  5
A
330
0
100
AcDbSymbolTable
 70
     1
100
AcDbDimStyleTable
  0
DIMSTYLE
105
27
330
A
100
AcDbSymbolTableRecord
100
AcDbDimStyleTableRecord
  2
ISO-25
 70
     0
 41
2.5
 42
0.625
 43
3.75
 44
1.25
 73
     0
 74
     0
 77
     1
 78
     8
140
2.5
141
2.5
143
0.03937007874016
147
0.625
171
     3
172
     1
271
     2
272
     2
274
     3
278
    44
283
     0
284
     8
340
11
  0
ENDTAB
  0
TABLE
  2
BLOCK_RECORD
  5
1
330
0
100
AcDbSymbolTable
 70
     1
  0
BLOCK_RECORD
  5
1F
330
1
100
AcDbSymbolTableRecord
100
AcDbBlockTableRecord
  2
*Model_Space
340
22
  0
BLOCK_RECORD
  5
1B
330
1
100
AcDbSymbolTableRecord
100
AcDbBlockTableRecord
  2
*Paper_Space
340
1E
  0
BLOCK_RECORD
  5
23
330
1
100
AcDbSymbolTableRecord
100
AcDbBlockTableRecord
  2
*Paper_Space0
340
26
  0
ENDTAB
  0
ENDSEC
  0
SECTION
  2
BLOCKS
  0
BLOCK
  5
20
330
1F
100
AcDbEntity
  8
0
100
AcDbBlockBegin
  2
*Model_Space
 70
     0
 10
0.0
 20
0.0
 30
0.0
  3
*Model_Space
  1

  0
ENDBLK
  5
21
330
1F
100
AcDbEntity
  8
0
100
AcDbBlockEnd
  0
BLOCK
  5
1C
330
1B
100
AcDbEntity
 67
     1
  8
0
100
AcDbBlockBegin
  2
*Paper_Space
 70
     0
 10
0.0
 20
0.0
 30
0.0
  3
*Paper_Space
  1

  0
ENDBLK
  5
1D
330
1B
100
AcDbEntity
 67
     1
  8
0
100
AcDbBlockEnd
  0
BLOCK
  5
24
330
23
100
AcDbEntity
  8
0
100
AcDbBlockBegin
  2
*Paper_Space0
 70
     0
 10
0.0
 20
0.0
 30
0.0
  3
*Paper_Space0
  1

  0
ENDBLK
  5
25
330
23
100
AcDbEntity
  8
0
100
AcDbBlockEnd
  0
ENDSEC
  0
SECTION
  2
ENTITIES
  0
LINE
  5
50
330
1F
100
AcDbEntity
  8
D-2
  6
Continuous
 62
     3
370
     9
100
AcDbLine
 10
558.815424010139
 20
369.3218143653583
 30
0.0
 11
659.8447488511955
 21
369.3218143653583
 31
0.0
  0
TEXT
  5
51
330
1F
100
AcDbEntity
  8
F-5ﾚｲﾔ
  6
Continuous
 62
     2
370
     9
100
AcDbText
 10
-845.3997081828237
 20
-1322.642571106638
 30
0.0
 40
30.48
  1
ステンレス製　細目ノンスリップタイプ（ローレット模様）グレーチング（すきま6mm）
 41
0.774367088607595
  7
ＭＳ ゴシック
100
AcDbText
  0
LINE
  5
52
330
1F
100
AcDbEntity
  8
D-4
  6
Continuous
 62
     7
370
     9
100
AcDbLine
 10
951.4082201457161
 20
369.3218143653583
 30
0.0
 11
951.4082201457161
 21
269.1677109718036
 31
0.0
  0
LWPOLYLINE
  5
53
330
1F
100
AcDbEntity
  8
D-4
  6
Continuous
 62
     7
370
     9
100
AcDbPolyline
 90
        4
 70
     1
 43
1.0
 10
951.9082201457161
 20
369.3218143653583
 42
0.4142135623731
 10
951.4082201457161
 20
369.8218143653583
 42
0.4142135623731
 10
950.9082201457161
 20
369.3218143653583
 42
0.4142135623731
 10
951.4082201457161
 20
368.8218143653583
 42
0.4142135623731
  0
LWPOLYLINE
  5
54
330
1F
100
AcDbEntity
  8
D-4
  6
Continuous
 62
     7
370
     9
100
AcDbPolyline
 90
        4
 70
     1
 43
1.0
 10
951.9082201457161
 20
269.1677109718036
 42
0.4142135623731
 10
951.4082201457161
 20
269.6677109718036
 42
0.4142135623731
 10
950.9082201457161
 20
269.1677109718036
 42
0.4142135623731
 10
951.4082201457161
 20
268.6677109718036
 42
0.4142135623731
  0
LINE
  5
55
330
1F
100
AcDbEntity
  8
D-4
  6
Continuous
 62
     7
370
     9
100
AcDbLine
 10
954.4082201457162
 20
369.3218143653583
 30
0.0
 11
826.5443338121328
 21
369.3218143653583
 31
0.0
  0
LINE
  5
56
330
1F
100
AcDbEntity
  8
D-4
  6
Continuous
 62
     7
370
     9
100
AcDbLine
 10
954.4082201457162
 20
269.1677109718036
 30
0.0
 11
826.5443338121328
 21
269.1677109718036
 31
0.0
  0
TEXT
  5
57
330
1F
100
AcDbEntity
  8
D-4
  6
Continuous
 62
     2
370
   211
100
AcDbText
 10
939.7682201457164
 20
297.994762668581
 30
0.0
 40
30.48
  1
20
 50
90.0
 41
1.0625
  7
ＭＳ ゴシック
100
AcDbText
  0
LINE
  5
58
330
1F
100
AcDbEntity
  8
D-2
  6
Continuous
 62
     3
370
     9
100
AcDbLine
 10
729.8448709215081
 20
362.321753330202
 30
0.0
 11
729.8448709215081
 21
369.3218143653583
 31
0.0
  0
LINE
  5
59
330
1F
100
AcDbEntity
  8
D-2
  6
Continuous
 62
     3
370
     9
100
AcDbLine
 10
798.9690725928024
 20
369.3218143653583
 30
0.0
 11
729.8448709215081
 21
369.3218143653583
 31
0.0
  0
LINE
  5
5A
330
1F
100
AcDbEntity
  8
D-2
  6
Continuous
 62
     3
370
     9
100
AcDbLine
 10
769.8442605699456
 20
369.3218143653583
 30
0.0
 11
769.8442605699456
 21
362.321753330202
 31
0.0
  0
LINE
  5
5B
330
1F
100
AcDbEntity
  8
D-2
  6
Continuous
 62
     3
370
     9
100
AcDbLine
 10
769.8442605699456
 20
362.321753330202
 30
0.0
 11
729.8448709215081
 21
362.321753330202
 31
0.0
  0
LINE
  5
5C
330
1F
100
AcDbEntity
  8
D-2
  6
Continuous
 62
     3
370
     9
100
AcDbLine
 10
746.344382640258
 20
362.321753330202
 30
0.0
 11
746.344382640258
 21
269.326753330202
 31
0.0
  0
LINE
  5
5D
330
1F
100
AcDbEntity
  8
D-2
  6
Continuous
 62
     3
370
     9
100
AcDbLine
 10
753.3447488511957
 20
362.321753330202
 30
0.0
 11
753.3447488511957
 21
269.326753330202
 31
0.0
  0
ARC
  5
5E
330
1F
100
AcDbEntity
  8
D-2
  6
Continuous
 62
     3
370
     9
100
AcDbCircle
 10
741.344382640258
 20
357.321753330202
 30
0.0
 40
5.0
100
AcDbArc
 50
0.0
 51
90.0
  0
ARC
  5
5F
330
1F
100
AcDbEntity
  8
D-2
  6
Continuous
 62
     3
370
     9
100
AcDbCircle
 10
758.3447488511957
 20
357.321753330202
 30
0.0
 40
5.0
100
AcDbArc
 50
90.0
 51
180.0
  0
LINE
  5
60
330
1F
100
AcDbEntity
  8
D-2
  6
Continuous
 62
     3
370
     9
100
AcDbLine
 10
1046.464843941052
 20
329.4379882851223
 30
0.0
 11
1046.464843941052
 21
388.4505035694867
 31
0.0
  0
LINE
  5
61
330
1F
100
AcDbEntity
  8
D-2
  6
Continuous
 62
     3
370
     9
100
AcDbLine
 10
1046.464843941052
 20
249.2668301000987
 30
0.0
 11
1046.464843941052
 21
309.4369049110987
 31
0.0
  0
LINE
  5
62
330
1F
100
AcDbEntity
  8
D-2
  6
Continuous
 62
     3
370
     9
100
AcDbLine
 10
1061.46569843324
 20
329.4379882851223
 30
0.0
 11
1046.464843941052
 21
329.4379882851223
 31
0.0
  0
LINE
  5
63
330
1F
100
AcDbEntity
  8
D-2
  6
Continuous
 62
     3
370
     9
100
AcDbLine
 10
1061.46569843324
 20
329.4379882851223
 30
0.0
 11
1031.464721870739
 21
309.4369049110987
 31
0.0
  0
LINE
  5
64
330
1F
100
AcDbEntity
  8
D-2
  6
Continuous
 62
     3
370
     9
100
AcDbLine
 10
1046.464843941052
 20
309.4369049110987
 30
0.0
 11
1031.464721870739
 21
309.4369049110987
 31
0.0
  0
LINE
  5
65
330
1F
100
AcDbEntity
  8
D-0
  6
Continuous
 62
     3
370
     9
100
AcDbLine
 10
1567.212654043279
 20
369.3218143653583
 30
0.0
 11
1567.212654043279
 21
269.3215669255358
 31
0.0
  0
LINE
  5
66
330
1F
100
AcDbEntity
  8
D-0
  6
Continuous
 62
     3
370
     9
100
AcDbLine
 10
1552.212604555316
 20
369.3218143653583
 30
0.0
 11
1552.212604555316
 21
269.3215669255358
 31
0.0
  0
LINE
  5
67
330
1F
100
AcDbEntity
  8
D-0
  6
Continuous
 62
     3
370
     9
100
AcDbLine
 10
1567.212654043279
 20
269.3215669255358
 30
0.0
 11
1552.212604555316
 21
269.3215669255358
 31
0.0
  0
LINE
  5
68
330
1F
100
AcDbEntity
  8
D-0
  6
Continuous
 62
     3
370
     9
100
AcDbLine
 10
1552.212604555316
 20
369.3218143653583
 30
0.0
 11
1567.212654043279
 21
369.3218143653583
 31
0.0
  0
LINE
  5
69
330
1F
100
AcDbEntity
  8
D-4
  6
Continuous
 62
     7
370
     9
100
AcDbLine
 10
1567.212654043279
 20
369.3218143653583
 30
0.0
 11
1582.431689768498
 21
389.1556478726392
 31
0.0
  0
LINE
  5
6A
330
1F
100
AcDbEntity
  8
D-4
  6
Continuous
 62
     7
370
     9
100
AcDbLine
 10
1567.212654043279
 20
369.3218143653583
 30
0.0
 11
1587.046487550562
 21
384.5408500905763
 31
0.0
  0
LINE
  5
6B
330
1F
100
AcDbEntity
  8
D-4
  6
Continuous
 62
     7
370
     9
100
AcDbLine
 10
1567.212654043279
 20
369.3218143653583
 30
0.0
 11
1636.130836533604
 21
438.2399968556815
 31
0.0
  0
LINE
  5
6C
330
1F
100
AcDbEntity
  8
D-4
  6
Continuous
 62
     7
370
     9
100
AcDbLine
 10
1636.130836533604
 20
438.2399968556815
 30
0.0
 11
1806.176478476078
 21
438.2399968556815
 31
0.0
  0
TEXT
  5
6D
330
1F
100
AcDbEntity
  8
D-5
  6
Continuous
 62
     7
370
     9
100
AcDbText
 10
1636.130836533604
 20
447.4699968556815
 30
0.0
 40
22.86
  1
サイドバー
 41
1.133333333333333
  7
ＭＳ ゴシック
100
AcDbText
  0
LINE
  5
6E
330
1F
100
AcDbEntity
  8
D-2
  6
Continuous
 62
     3
370
     9
100
AcDbLine
 10
1387.212654043279
 20
329.4379882851223
 30
0.0
 11
1387.212654043279
 21
388.4505035694867
 31
0.0
  0
LINE
  5
6F
330
1F
100
AcDbEntity
  8
D-2
  6
Continuous
 62
     3
370
     9
100
AcDbLine
 10
1387.212654043279
 20
249.2668301000987
 30
0.0
 11
1387.212654043279
 21
309.4369049110987
 31
0.0
  0
LINE
  5
70
330
1F
100
AcDbEntity
  8
D-2
  6
Continuous
 62
     3
370
     9
100
AcDbLine
 10
1417.212654043279
 20
329.4379882851223
 30
0.0
 11
1417.212654043279
 21
388.4505035694867
 31
0.0
  0
LINE
  5
71
330
1F
100
AcDbEntity
  8
D-2
  6
Continuous
 62
     3
370
     9
100
AcDbLine
 10
1417.212654043279
 20
249.2668301000987
 30
0.0
 11
1417.212654043279
 21
309.4369049110987
 31
0.0
  0
LINE
  5
72
330
1F
100
AcDbEntity
  8
D-0
  6
Continuous
 62
     3
370
     9
100
AcDbLine
 10
1387.212654043279
 20
269.3215669255358
 30
0.0
 11
1046.464990425427
 21
269.3215669255358
 31
0.0
  0
LINE
  5
73
330
1F
100
AcDbEntity
  8
D-0
  6
Continuous
 62
     3
370
     9
100
AcDbLine
 10
1046.464990425427
 20
362.3217417830102
 30
0.0
 11
1387.212654043279
 21
362.3217417830102
 31
0.0
  0
LINE
  5
74
330
1F
100
AcDbEntity
  8
D-0
  6
Continuous
 62
     3
370
     9
100
AcDbLine
 10
1387.212654043279
 20
369.3218143653583
 30
0.0
 11
1046.464990425427
 21
369.3218143653583
 31
0.0
  0
LINE
  5
75
330
1F
100
AcDbEntity
  8
D-0
  6
Continuous
 62
     3
370
     9
100
AcDbLine
 10
1417.212654043279
 20
362.3217417830102
 30
0.0
 11
1552.212604555316
 21
362.3217417830102
 31
0.0
  0
LINE
  5
76
330
1F
100
AcDbEntity
  8
D-0
  6
Continuous
 62
     3
370
     9
100
AcDbLine
 10
1552.212604555316
 20
369.3218143653583
 30
0.0
 11
1417.212654043279
 21
369.3218143653583
 31
0.0
  0
LINE
  5
77
330
1F
100
AcDbEntity
  8
D-0
  6
Continuous
 62
     3
370
     9
100
AcDbLine
 10
1552.212604555316
 20
269.3215669255358
 30
0.0
 11
1417.212654043279
 21
269.3215669255358
 31
0.0
  0
LINE
  5
78
330
1F
100
AcDbEntity
  8
D-2
  6
Continuous
 62
     3
370
     9
100
AcDbLine
 10
1432.213508535467
 20
329.4379882851223
 30
0.0
 11
1417.212654043279
 21
329.4379882851223
 31
0.0
  0
LINE
  5
79
330
1F
100
AcDbEntity
  8
D-2
  6
Continuous
 62
     3
370
     9
100
AcDbLine
 10
1432.213508535467
 20
329.4379882851223
 30
0.0
 11
1402.212531972966
 21
309.4369049110987
 31
0.0
  0
LINE
  5
7A
330
1F
100
AcDbEntity
  8
D-2
  6
Continuous
 62
     3
370
     9
100
AcDbLine
 10
1417.212654043279
 20
309.4369049110987
 30
0.0
 11
1402.212531972966
 21
309.4369049110987
 31
0.0
  0
LINE
  5
7B
330
1F
100
AcDbEntity
  8
D-2
  6
Continuous
 62
     3
370
     9
100
AcDbLine
 10
1402.213508535467
 20
329.4379882851223
 30
0.0
 11
1387.212654043279
 21
329.4379882851223
 31
0.0
  0
LINE
  5
7C
330
1F
100
AcDbEntity
  8
D-2
  6
Continuous
 62
     3
370
     9
100
AcDbLine
 10
1402.213508535467
 20
329.4379882851223
 30
0.0
 11
1372.212531972966
 21
309.4369049110987
 31
0.0
  0
LINE
  5
7D
330
1F
100
AcDbEntity
  8
D-2
  6
Continuous
 62
     3
370
     9
100
AcDbLine
 10
1387.212654043279
 20
309.4369049110987
 30
0.0
 11
1372.212531972966
 21
309.4369049110987
 31
0.0
  0
LINE
  5
7E
330
1F
100
AcDbEntity
  8
D-5
  6
Continuous
 62
     7
370
     9
100
AcDbLine
 10
578.1860752129244
 20
55.41478274144694
 30
0.0
 11
796.124495560983
 21
55.41478274144694
 31
0.0
  0
TEXT
  5
7F
330
1F
100
AcDbEntity
  8
D-5
  6
Continuous
 62
     2
370
     9
100
AcDbText
 10
588.4052853869538
 20
76.05478274144694
 30
0.0
 40
30.48
  1
B-B断面図
 41
1.097222222222222
  7
ＭＳ ゴシック
100
AcDbText
  0
LINE
  5
80
330
1F
100
AcDbEntity
  8
D-5
  6
Continuous
 62
     7
370
     9
100
AcDbLine
 10
1226.977283482841
 20
55.41478274144694
 30
0.0
 11
1423.89740519717
 21
55.41478274144694
 31
0.0
  0
TEXT
  5
81
330
1F
100
AcDbEntity
  8
D-5
  6
Continuous
 62
     2
370
     9
100
AcDbText
 10
1229.214397915732
 20
76.05478274144694
 30
0.0
 40
30.48
  1
C-C断面図
 41
1.097222222222221
  7
ＭＳ ゴシック
100
AcDbText
  0
LINE
  5
82
330
1F
100
AcDbEntity
  8
D-4
  6
Continuous
 62
     7
370
     9
100
AcDbLine
 10
1303.055049433739
 20
369.3218143653583
 30
0.0
 11
1318.274085158958
 21
389.1556478726392
 31
0.0
  0
LINE
  5
83
330
1F
100
AcDbEntity
  8
D-4
  6
Continuous
 62
     7
370
     9
100
AcDbLine
 10
1303.055049433739
 20
369.3218143653583
 30
0.0
 11
1322.88888294102
 21
384.5408500905763
 31
0.0
  0
LINE
  5
84
330
1F
100
AcDbEntity
  8
D-4
  6
Continuous
 62
     7
370
     9
100
AcDbLine
 10
1303.055049433739
 20
369.3218143653583
 30
0.0
 11
1371.973231924063
 21
438.2399968556815
 31
0.0
  0
LINE
  5
85
330
1F
100
AcDbEntity
  8
D-4
  6
Continuous
 62
     7
370
     9
100
AcDbLine
 10
1540.524667138582
 20
438.2399968556815
 30
0.0
 11
1371.973231924063
 21
438.2399968556815
 31
0.0
  0
TEXT
  5
86
330
1F
100
AcDbEntity
  8
D-5
  6
Continuous
 62
     7
370
     9
100
AcDbText
 10
1371.226998376673
 20
447.4699968556815
 30
0.0
 40
22.86
  1
メインバー
 41
1.133333333333333
  7
ＭＳ ゴシック
100
AcDbText
  0
LINE
  5
87
330
1F
100
AcDbEntity
  8
D-4
  6
Continuous
 62
     7
370
     9
100
AcDbLine
 10
1046.464843941052
 20
440.1346454065925
 30
0.0
 11
1237.21265404328
 21
440.1346454065925
 31
0.0
  0
LWPOLYLINE
  5
88
330
1F
100
AcDbEntity
  8
D-4
  6
Continuous
 62
     7
370
     9
100
AcDbPolyline
 90
        4
 70
     1
 43
1.0
 10
1237.71265404328
 20
440.1346454065925
 42
0.4142135623731
 10
1237.21265404328
 20
440.6346454065925
 42
0.4142135623731
 10
1236.71265404328
 20
440.1346454065925
 42
0.4142135623731
 10
1237.21265404328
 20
439.6346454065926
 42
0.4142135623731
  0
LINE
  5
89
330
1F
100
AcDbEntity
  8
D-4
  6
Continuous
 62
     7
370
     9
100
AcDbLine
 10
1237.21265404328
 20
443.1346454065925
 30
0.0
 11
1237.21265404328
 21
357.3292474576302
 31
0.0
  0
TEXT
  5
8A
330
1F
100
AcDbEntity
  8
D-4
  6
Continuous
 62
     2
370
   211
100
AcDbText
 10
1046.464843941052
 20
451.7746454065926
 30
0.0
 40
30.48
  1
100
 41
1.083333333333333
  7
ＭＳ ゴシック
100
AcDbText
  0
LINE
  5
8B
330
1F
100
AcDbEntity
  8
D-5
  6
Continuous
 62
     7
370
     9
100
AcDbLine
 10
725.3411267779722
 20
-117.2819200065668
 30
0.0
 11
1370.971334236012
 21
-117.2819200065668
 31
0.0
  0
TEXT
  5
8C
330
1F
100
AcDbEntity
  8
D-5
  6
Continuous
 62
     2
370
     9
100
AcDbText
 10
740.3416150592222
 20
-96.64192000656676
 30
0.0
 40
30.48
  1
メインバー詳細図　Ｓ＝１：２
 41
1.116071428571428
  7
ＭＳ ゴシック
100
AcDbText
  0
LINE
  5
8D
330
1F
100
AcDbEntity
  8
D-2
  6
Continuous
 62
     3
370
     9
100
AcDbLine
 10
753.3447488511957
 20
333.9992283057881
 30
0.0
 11
798.9690725928024
 21
333.9992283057881
 31
0.0
  0
LINE
  5
8E
330
1F
100
AcDbEntity
  8
D-2
  6
Continuous
 62
     3
370
     9
100
AcDbLine
 10
753.3447488511957
 20
316.3218143653583
 30
0.0
 11
798.9690725928024
 21
316.3218143653583
 31
0.0
  0
LINE
  5
8F
330
1F
100
AcDbEntity
  8
D-2
  6
Continuous
 62
     3
370
     9
100
AcDbLine
 10
753.3447488511957
 20
298.6437137794208
 30
0.0
 11
798.9690725928024
 21
298.6437137794208
 31
0.0
  0
LINE
  5
90
330
1F
100
AcDbEntity
  8
D-2
  6
Continuous
 62
     3
370
     9
100
AcDbLine
 10
1242.39033233192
 20
303.8218968452991
 30
0.0
 11
1249.712200403605
 21
303.8218968452991
 31
0.0
  0
LINE
  5
91
330
1F
100
AcDbEntity
  8
D-2
  6
Continuous
 62
     3
370
     9
100
AcDbLine
 10
1249.712200403605
 20
311.144507236452
 30
0.0
 11
1249.712200403605
 21
303.8218968452991
 31
0.0
  0
LINE
  5
92
330
1F
100
AcDbEntity
  8
D-2
  6
Continuous
 62
     3
370
     9
100
AcDbLine
 10
1254.890249851979
 20
316.3218143653583
 30
0.0
 11
1237.212282883546
 21
298.6445897163928
 31
0.0
  0
LINE
  5
93
330
1F
100
AcDbEntity
  8
D-2
  6
Continuous
 62
     3
370
     9
100
AcDbLine
 10
1237.21265404328
 20
333.9997813337915
 30
0.0
 11
1254.890249851979
 21
316.3218143653583
 31
0.0
  0
LINE
  5
94
330
1F
100
AcDbEntity
  8
D-2
  6
Continuous
 62
     3
370
     9
100
AcDbLine
 10
1249.712200403605
 20
328.8224742048852
 30
0.0
 11
1249.712200403605
 21
321.5002349734663
 31
0.0
  0
LINE
  5
95
330
1F
100
AcDbEntity
  8
D-2
  6
Continuous
 62
     3
370
     9
100
AcDbLine
 10
1242.39033233192
 20
328.8224742048852
 30
0.0
 11
1249.712200403605
 21
328.8224742048852
 31
0.0
  0
LINE
  5
96
330
1F
100
AcDbEntity
  8
D-2
  6
Continuous
 62
     3
370
     9
100
AcDbLine
 10
1219.534687074846
 20
316.3218143653583
 30
0.0
 11
1237.21265404328
 21
333.9997813337915
 31
0.0
  0
LINE
  5
97
330
1F
100
AcDbEntity
  8
D-2
  6
Continuous
 62
     3
370
     9
100
AcDbLine
 10
1224.712365363486
 20
328.8224742048852
 30
0.0
 11
1232.035346914373
 21
328.8224742048852
 31
0.0
  0
LINE
  5
98
330
1F
100
AcDbEntity
  8
D-2
  6
Continuous
 62
     3
370
     9
100
AcDbLine
 10
1224.712365363486
 20
328.8224742048852
 30
0.0
 11
1224.712365363486
 21
321.4998638137322
 31
0.0
  0
LINE
  5
99
330
1F
100
AcDbEntity
  8
D-2
  6
Continuous
 62
     3
370
     9
100
AcDbLine
 10
1237.212282883546
 20
298.6445897163928
 30
0.0
 11
1219.534687074846
 21
316.3218143653583
 31
0.0
  0
LINE
  5
9A
330
1F
100
AcDbEntity
  8
D-2
  6
Continuous
 62
     3
370
     9
100
AcDbLine
 10
1224.712365363486
 20
311.144507236452
 30
0.0
 11
1224.712365363486
 21
303.8218968452991
 31
0.0
  0
LINE
  5
9B
330
1F
100
AcDbEntity
  8
D-2
  6
Continuous
 62
     3
370
     9
100
AcDbLine
 10
1224.712365363486
 20
303.8218968452991
 30
0.0
 11
1232.034604594906
 21
303.8218968452991
 31
0.0
  0
LINE
  5
9C
330
1F
100
AcDbEntity
  8
D-2
  6
JWW_CENTER1
 62
     3
370
     9
100
AcDbLine
 10
1263.720139922714
 20
316.3218143653583
 30
0.0
 11
1210.704797004111
 21
316.3218143653583
 31
0.0
  0
LINE
  5
9D
330
1F
100
AcDbEntity
  8
D-4
  6
Continuous
 62
     7
370
     9
100
AcDbLine
 10
1228.373484979196
 20
307.4832020408755
 30
0.0
 11
1213.154449253979
 21
287.6493685335948
 31
0.0
  0
LINE
  5
9E
330
1F
100
AcDbEntity
  8
D-4
  6
Continuous
 62
     7
370
     9
100
AcDbLine
 10
1228.373484979196
 20
307.4832020408755
 30
0.0
 11
1208.539651471915
 21
292.2641663156575
 31
0.0
  0
LINE
  5
9F
330
1F
100
AcDbEntity
  8
D-2
  6
JWW_CENTER1
 62
     3
370
     9
100
AcDbLine
 10
1237.21265404328
 20
289.8146996456581
 30
0.0
 11
1237.21265404328
 21
342.8300425642602
 31
0.0
  0
LINE
  5
A0
330
1F
100
AcDbEntity
  8
D-4
  6
Continuous
 62
     7
370
     9
100
AcDbLine
 10
1228.373484979196
 20
307.4832020408755
 30
0.0
 11
1109.667667716649
 21
188.777384778329
 31
0.0
  0
LINE
  5
A1
330
1F
100
AcDbEntity
  8
D-4
  6
Continuous
 62
     7
370
     9
100
AcDbLine
 10
938.359877095818
 20
188.777384778329
 30
0.0
 11
1109.667667716649
 21
188.777384778329
 31
0.0
  0
TEXT
  5
A2
330
1F
100
AcDbEntity
  8
D-5
  6
Continuous
 62
     7
370
     9
100
AcDbText
 10
940.3514990009917
 20
198.0073847783289
 30
0.0
 40
22.86
  1
クロスバー
 41
1.133333333333333
  7
ＭＳ ゴシック
100
AcDbText
  0
LINE
  5
A3
330
1F
100
AcDbEntity
  8
D-2
  6
Continuous
 62
     3
370
     9
100
AcDbLine
 10
699.8448709215081
 20
369.3218143653583
 30
0.0
 11
659.8454812730706
 21
369.3218143653583
 31
0.0
  0
LINE
  5
A4
330
1F
100
AcDbEntity
  8
D-2
  6
Continuous
 62
     3
370
     9
100
AcDbLine
 10
659.8454812730706
 20
369.3218143653583
 30
0.0
 11
659.8454812730706
 21
362.321753330202
 31
0.0
  0
LINE
  5
A5
330
1F
100
AcDbEntity
  8
D-2
  6
Continuous
 62
     3
370
     9
100
AcDbLine
 10
699.8448709215081
 20
369.3218143653583
 30
0.0
 11
699.8448709215081
 21
362.321753330202
 31
0.0
  0
LINE
  5
A6
330
1F
100
AcDbEntity
  8
D-2
  6
Continuous
 62
     3
370
     9
100
AcDbLine
 10
676.3449929918205
 20
362.321753330202
 30
0.0
 11
676.3449929918205
 21
269.326753330202
 31
0.0
  0
LINE
  5
A7
330
1F
100
AcDbEntity
  8
D-2
  6
Continuous
 62
     3
370
     9
100
AcDbLine
 10
683.3453592027582
 20
362.321753330202
 30
0.0
 11
683.3453592027582
 21
269.326753330202
 31
0.0
  0
LINE
  5
A8
330
1F
100
AcDbEntity
  8
D-2
  6
Continuous
 62
     3
370
     9
100
AcDbLine
 10
699.8448709215081
 20
369.3218143653583
 30
0.0
 11
729.8448709215081
 21
369.3218143653583
 31
0.0
  0
LINE
  5
A9
330
1F
100
AcDbEntity
  8
D-2
  6
Continuous
 62
     3
370
     9
100
AcDbLine
 10
659.8454812730706
 20
362.321753330202
 30
0.0
 11
699.8448709215081
 21
362.321753330202
 31
0.0
  0
ARC
  5
AA
330
1F
100
AcDbEntity
  8
D-2
  6
Continuous
 62
     3
370
     9
100
AcDbCircle
 10
671.3449929918205
 20
357.321753330202
 30
0.0
 40
5.0
100
AcDbArc
 50
0.0
 51
90.0
  0
ARC
  5
AB
330
1F
100
AcDbEntity
  8
D-2
  6
Continuous
 62
     3
370
     9
100
AcDbCircle
 10
688.3453592027582
 20
357.321753330202
 30
0.0
 40
5.0
100
AcDbArc
 50
90.0
 51
180.0
  0
LINE
  5
AC
330
1F
100
AcDbEntity
  8
D-2
  6
Continuous
 62
     3
370
     9
100
AcDbLine
 10
683.3449929918207
 20
333.9992283057881
 30
0.0
 11
746.344382640258
 21
333.9992283057881
 31
0.0
  0
LINE
  5
AD
330
1F
100
AcDbEntity
  8
D-2
  6
Continuous
 62
     3
370
     9
100
AcDbLine
 10
683.3449929918207
 20
316.3218143653583
 30
0.0
 11
746.344382640258
 21
316.3218143653583
 31
0.0
  0
LINE
  5
AE
330
1F
100
AcDbEntity
  8
D-2
  6
Continuous
 62
     3
370
     9
100
AcDbLine
 10
683.3449929918207
 20
298.6437137794208
 30
0.0
 11
746.344382640258
 21
298.6437137794208
 31
0.0
  0
LINE
  5
AF
330
1F
100
AcDbEntity
  8
D-2
  6
Continuous
 62
     3
370
     9
100
AcDbLine
 10
606.3448709215082
 20
362.321753330202
 30
0.0
 11
606.3448709215082
 21
269.326753330202
 31
0.0
  0
LINE
  5
B0
330
1F
100
AcDbEntity
  8
D-2
  6
Continuous
 62
     3
370
     9
100
AcDbLine
 10
613.3452371324456
 20
362.321753330202
 30
0.0
 11
613.3452371324456
 21
269.326753330202
 31
0.0
  0
LINE
  5
B1
330
1F
100
AcDbEntity
  8
D-2
  6
Continuous
 62
     3
370
     9
100
AcDbLine
 10
589.845359202758
 20
369.3218143653583
 30
0.0
 11
589.845359202758
 21
362.321753330202
 31
0.0
  0
LINE
  5
B2
330
1F
100
AcDbEntity
  8
D-2
  6
Continuous
 62
     3
370
     9
100
AcDbLine
 10
589.845359202758
 20
362.321753330202
 30
0.0
 11
629.8447488511955
 21
362.321753330202
 31
0.0
  0
ARC
  5
B3
330
1F
100
AcDbEntity
  8
D-2
  6
Continuous
 62
     3
370
     9
100
AcDbCircle
 10
601.3448709215082
 20
357.321753330202
 30
0.0
 40
5.0
100
AcDbArc
 50
0.0
 51
90.0
  0
ARC
  5
B4
330
1F
100
AcDbEntity
  8
D-2
  6
Continuous
 62
     3
370
     9
100
AcDbCircle
 10
618.3452371324456
 20
357.321753330202
 30
0.0
 40
5.0
100
AcDbArc
 50
90.0
 51
180.0
  0
LINE
  5
B5
330
1F
100
AcDbEntity
  8
D-2
  6
Continuous
 62
     3
370
     9
100
AcDbLine
 10
558.815424010139
 20
269.1677109718036
 30
0.0
 11
798.9690725928024
 21
269.1677109718036
 31
0.0
  0
LINE
  5
B6
330
1F
100
AcDbEntity
  8
D-2
  6
Continuous
 62
     3
370
     9
100
AcDbLine
 10
613.8452371324457
 20
298.6437137794208
 30
0.0
 11
676.3449929918205
 21
298.6437137794208
 31
0.0
  0
LINE
  5
B7
330
1F
100
AcDbEntity
  8
D-2
  6
Continuous
 62
     3
370
     9
100
AcDbLine
 10
613.8452371324457
 20
316.3218143653583
 30
0.0
 11
676.3449929918205
 21
316.3218143653583
 31
0.0
  0
LINE
  5
B8
330
1F
100
AcDbEntity
  8
D-2
  6
Continuous
 62
     3
370
     9
100
AcDbLine
 10
613.8452371324457
 20
333.9992283057881
 30
0.0
 11
676.3449929918205
 21
333.9992283057881
 31
0.0
  0
LINE
  5
B9
330
1F
100
AcDbEntity
  8
D-2
  6
Continuous
 62
     3
370
     9
100
AcDbLine
 10
558.815424010139
 20
333.9992283057881
 30
0.0
 11
606.3448709215082
 21
333.9992283057881
 31
0.0
  0
LINE
  5
BA
330
1F
100
AcDbEntity
  8
D-2
  6
Continuous
 62
     3
370
     9
100
AcDbLine
 10
558.815424010139
 20
316.3218143653583
 30
0.0
 11
606.3448709215082
 21
316.3218143653583
 31
0.0
  0
LINE
  5
BB
330
1F
100
AcDbEntity
  8
D-2
  6
Continuous
 62
     3
370
     9
100
AcDbLine
 10
558.815424010139
 20
298.6437137794208
 30
0.0
 11
606.3448709215082
 21
298.6437137794208
 31
0.0
  0
LINE
  5
BC
330
1F
100
AcDbEntity
  8
D-2
  6
Continuous
 62
     3
370
     9
100
AcDbLine
 10
629.8447488511955
 20
362.321753330202
 30
0.0
 11
629.8447488511955
 21
369.3218143653583
 31
0.0
  0
LINE
  5
BD
330
1F
100
AcDbEntity
  8
D-4
  6
Continuous
 62
     7
370
     9
100
AcDbLine
 10
589.845359202758
 20
440.1346454065925
 30
0.0
 11
629.8447488511955
 21
440.1346454065925
 31
0.0
  0
LWPOLYLINE
  5
BE
330
1F
100
AcDbEntity
  8
D-4
  6
Continuous
 62
     7
370
     9
100
AcDbPolyline
 90
        4
 70
     1
 43
1.0
 10
590.345359202758
 20
440.1346454065925
 42
0.4142135623731
 10
589.845359202758
 20
440.6346454065925
 42
0.4142135623731
 10
589.3453592027581
 20
440.1346454065925
 42
0.4142135623731
 10
589.845359202758
 20
439.6346454065926
 42
0.4142135623731
  0
LWPOLYLINE
  5
BF
330
1F
100
AcDbEntity
  8
D-4
  6
Continuous
 62
     7
370
     9
100
AcDbPolyline
 90
        4
 70
     1
 43
1.0
 10
630.3447488511955
 20
440.1346454065925
 42
0.4142135623731
 10
629.8447488511955
 20
440.6346454065925
 42
0.4142135623731
 10
629.3447488511956
 20
440.1346454065925
 42
0.4142135623731
 10
629.8447488511955
 20
439.6346454065926
 42
0.4142135623731
  0
LINE
  5
C0
330
1F
100
AcDbEntity
  8
D-4
  6
Continuous
 62
     7
370
     9
100
AcDbLine
 10
589.845359202758
 20
443.1346454065925
 30
0.0
 11
589.845359202758
 21
389.3218143653583
 31
0.0
  0
LINE
  5
C1
330
1F
100
AcDbEntity
  8
D-4
  6
Continuous
 62
     7
370
     9
100
AcDbLine
 10
629.8447488511955
 20
443.1346454065925
 30
0.0
 11
629.8447488511955
 21
389.3218143653583
 31
0.0
  0
TEXT
  5
C2
330
1F
100
AcDbEntity
  8
D-4
  6
Continuous
 62
     2
370
   211
100
AcDbText
 10
599.8450540269768
 20
451.7746454065926
 30
0.0
 40
30.48
  1
8
 41
0.9999999999999998
  7
ＭＳ ゴシック
100
AcDbText
  0
LINE
  5
C3
330
1F
100
AcDbEntity
  8
D-4
  6
Continuous
 62
     7
370
     9
100
AcDbLine
 10
629.8447488511955
 20
440.1346454065925
 30
0.0
 11
659.8447488511955
 21
440.1346454065925
 31
0.0
  0
LWPOLYLINE
  5
C4
330
1F
100
AcDbEntity
  8
D-4
  6
Continuous
 62
     7
370
     9
100
AcDbPolyline
 90
        4
 70
     1
 43
1.0
 10
660.3447488511955
 20
440.1346454065925
 42
0.4142135623731
 10
659.8447488511955
 20
440.6346454065925
 42
0.4142135623731
 10
659.3447488511956
 20
440.1346454065925
 42
0.4142135623731
 10
659.8447488511955
 20
439.6346454065926
 42
0.4142135623731
  0
LINE
  5
C5
330
1F
100
AcDbEntity
  8
D-4
  6
Continuous
 62
     7
370
     9
100
AcDbLine
 10
659.8447488511955
 20
443.1346454065925
 30
0.0
 11
659.8447488511955
 21
389.3218143653583
 31
0.0
  0
TEXT
  5
C6
330
1F
100
AcDbEntity
  8
D-4
  6
Continuous
 62
     2
370
   211
100
AcDbText
 10
634.8447488511955
 20
451.7746454065926
 30
0.0
 40
30.48
  1
6
 41
0.9999999999999998
  7
ＭＳ ゴシック
100
AcDbText
  0
LINE
  5
C7
330
1F
100
AcDbEntity
  8
D-4
  6
Continuous
 62
     7
370
     9
100
AcDbLine
 10
659.8447488511955
 20
440.1346454065925
 30
0.0
 11
699.8448709215081
 21
440.1346454065925
 31
0.0
  0
LWPOLYLINE
  5
C8
330
1F
100
AcDbEntity
  8
D-4
  6
Continuous
 62
     7
370
     9
100
AcDbPolyline
 90
        4
 70
     1
 43
1.0
 10
700.3448709215081
 20
440.1346454065925
 42
0.4142135623731
 10
699.8448709215081
 20
440.6346454065925
 42
0.4142135623731
 10
699.3448709215081
 20
440.1346454065925
 42
0.4142135623731
 10
699.8448709215081
 20
439.6346454065926
 42
0.4142135623731
  0
LINE
  5
C9
330
1F
100
AcDbEntity
  8
D-4
  6
Continuous
 62
     7
370
     9
100
AcDbLine
 10
699.8448709215081
 20
443.1346454065925
 30
0.0
 11
699.8448709215081
 21
389.3218143653583
 31
0.0
  0
TEXT
  5
CA
330
1F
100
AcDbEntity
  8
D-4
  6
Continuous
 62
     2
370
   211
100
AcDbText
 10
669.8448098863519
 20
451.7746454065926
 30
0.0
 40
30.48
  1
8
 41
0.9999999999999998
  7
ＭＳ ゴシック
100
AcDbText
  0
LINE
  5
CB
330
1F
100
AcDbEntity
  8
D-4
  6
Continuous
 62
     7
370
     9
100
AcDbLine
 10
699.8448709215081
 20
440.1346454065925
 30
0.0
 11
729.8448709215081
 21
440.1346454065925
 31
0.0
  0
LWPOLYLINE
  5
CC
330
1F
100
AcDbEntity
  8
D-4
  6
Continuous
 62
     7
370
     9
100
AcDbPolyline
 90
        4
 70
     1
 43
1.0
 10
730.3448709215081
 20
440.1346454065925
 42
0.4142135623731
 10
729.8448709215081
 20
440.6346454065925
 42
0.4142135623731
 10
729.3448709215081
 20
440.1346454065925
 42
0.4142135623731
 10
729.8448709215081
 20
439.6346454065926
 42
0.4142135623731
  0
LINE
  5
CD
330
1F
100
AcDbEntity
  8
D-4
  6
Continuous
 62
     7
370
     9
100
AcDbLine
 10
729.8448709215081
 20
443.1346454065925
 30
0.0
 11
729.8448709215081
 21
389.3218143653583
 31
0.0
  0
TEXT
  5
CE
330
1F
100
AcDbEntity
  8
D-4
  6
Continuous
 62
     2
370
   211
100
AcDbText
 10
704.8448709215081
 20
451.7746454065926
 30
0.0
 40
30.48
  1
6
 41
0.9999999999999998
  7
ＭＳ ゴシック
100
AcDbText
  0
LINE
  5
CF
330
1F
100
AcDbEntity
  8
D-4
  6
Continuous
 62
     7
370
     9
100
AcDbLine
 10
729.8448709215081
 20
440.1346454065925
 30
0.0
 11
769.8442605699456
 21
440.1346454065925
 31
0.0
  0
LWPOLYLINE
  5
D0
330
1F
100
AcDbEntity
  8
D-4
  6
Continuous
 62
     7
370
     9
100
AcDbPolyline
 90
        4
 70
     1
 43
1.0
 10
770.3442605699456
 20
440.1346454065925
 42
0.4142135623731
 10
769.8442605699456
 20
440.6346454065925
 42
0.4142135623731
 10
769.3442605699456
 20
440.1346454065925
 42
0.4142135623731
 10
769.8442605699456
 20
439.6346454065926
 42
0.4142135623731
  0
LINE
  5
D1
330
1F
100
AcDbEntity
  8
D-4
  6
Continuous
 62
     7
370
     9
100
AcDbLine
 10
769.8442605699456
 20
443.1346454065925
 30
0.0
 11
769.8442605699456
 21
389.3218143653583
 31
0.0
  0
TEXT
  5
D2
330
1F
100
AcDbEntity
  8
D-4
  6
Continuous
 62
     2
370
   211
100
AcDbText
 10
739.8445657457269
 20
451.7746454065926
 30
0.0
 40
30.48
  1
8
 41
0.9999999999999998
  7
ＭＳ ゴシック
100
AcDbText
  0
TEXT
  5
D3
330
1F
100
AcDbEntity
  8
D-5
  6
Continuous
 62
     2
370
     9
100
AcDbText
 10
711.3700160057077
 20
1203.719874263543
 30
0.0
 40
30.48
  1
C
 41
0.9999999999999998
  7
ＭＳ ゴシック
100
AcDbText
  0
SOLID
  5
D4
330
1F
100
AcDbEntity
  8
D-5
  6
Continuous
 62
     4
370
     9
100
AcDbTrace
 10
646.7437623911037
 20
1194.944059410273
 30
0.0
 11
646.7437623911037
 21
1234.944059410273
 31
0.0
 12
642.7437623911039
 22
1194.944059410273
 32
0.0
 13
642.7437623911039
 23
1234.944059410273
 33
0.0
  0
LINE
  5
D5
330
1F
100
AcDbEntity
  8
D-5
  6
Continuous
 62
     4
370
     9
100
AcDbLine
 10
654.4098521888158
 20
1215.925056283746
 30
0.0
 11
703.6592448717574
 21
1215.925056283746
 31
0.0
  0
LINE
  5
D6
330
1F
100
AcDbEntity
  8
D-5
  6
Continuous
 62
     4
370
     9
100
AcDbLine
 10
654.4098521888158
 20
1215.925056283746
 30
0.0
 11
679.1959737231612
 21
1212.661901478245
 31
0.0
  0
LINE
  5
D7
330
1F
100
AcDbEntity
  8
D-5
  6
Continuous
 62
     4
370
     9
100
AcDbLine
 10
654.4098521888158
 20
1215.925056283746
 30
0.0
 11
679.1959737231612
 21
1219.188211089248
 31
0.0
  0
LINE
  5
D8
330
1F
100
AcDbEntity
  8
D-5
  6
JWW_CENTER1
 62
     4
370
     9
100
AcDbLine
 10
644.7437623911038
 20
1194.944059410273
 30
0.0
 11
644.7437623911038
 21
1157.640734588788
 31
0.0
  0
LINE
  5
D9
330
1F
100
AcDbEntity
  8
D-2
  6
Continuous
 62
     3
370
     9
100
AcDbLine
 10
799.8408475499918
 20
1023.630995429371
 30
0.0
 11
559.8864177173284
 21
1023.630995429371
 31
0.0
  0
LINE
  5
DA
330
1F
100
AcDbEntity
  8
D-A
  6
Continuous
 62
     3
370
     9
100
AcDbLine
 10
799.8408475499918
 20
1008.631193381229
 30
0.0
 11
559.8864177173284
 21
1008.631193381229
 31
0.0
  0
LINE
  5
DB
330
1F
100
AcDbEntity
  8
D-2
  6
Continuous
 62
     3
370
     9
100
AcDbLine
 10
729.8400672897521
 20
924.6369701939434
 30
0.0
 11
769.8400062545961
 21
891.0734936314432
 31
0.0
  0
LINE
  5
DC
330
1F
100
AcDbEntity
  8
D-2
  6
Continuous
 62
     3
370
     9
100
AcDbLine
 10
729.8400672897521
 20
934.8908210358788
 30
0.0
 11
769.8400062545961
 21
901.3273444733786
 31
0.0
  0
LINE
  5
DD
330
1F
100
AcDbEntity
  8
D-2
  6
Continuous
 62
     3
370
     9
100
AcDbLine
 10
729.8400672897521
 20
898.9943366608791
 30
0.0
 11
769.8400062545961
 21
932.5582099518945
 31
0.0
  0
LINE
  5
DE
330
1F
100
AcDbEntity
  8
D-2
  6
Continuous
 62
     3
370
     9
100
AcDbLine
 10
729.8400672897521
 20
945.1446718778138
 30
0.0
 11
769.8400062545961
 21
911.5811953153141
 31
0.0
  0
LINE
  5
DF
330
1F
100
AcDbEntity
  8
D-2
  6
Continuous
 62
     3
370
     9
100
AcDbLine
 10
729.8400672897521
 20
909.2481875028138
 30
0.0
 11
769.8400062545961
 21
942.8120607938295
 31
0.0
  0
LINE
  5
E0
330
1F
100
AcDbEntity
  8
D-2
  6
Continuous
 62
     3
370
     9
100
AcDbLine
 10
729.8400672897521
 20
955.3985227197493
 30
0.0
 11
769.8400062545961
 21
921.8350461572495
 31
0.0
  0
LINE
  5
E1
330
1F
100
AcDbEntity
  8
D-2
  6
Continuous
 62
     3
370
     9
100
AcDbLine
 10
729.8400672897521
 20
919.5020383447493
 30
0.0
 11
769.8400062545961
 21
953.0659116357649
 31
0.0
  0
LINE
  5
E2
330
1F
100
AcDbEntity
  8
D-2
  6
Continuous
 62
     3
370
     9
100
AcDbLine
 10
729.8400672897521
 20
965.6523735616847
 30
0.0
 11
769.8400062545961
 21
932.0888969991845
 31
0.0
  0
LINE
  5
E3
330
1F
100
AcDbEntity
  8
D-2
  6
Continuous
 62
     3
370
     9
100
AcDbLine
 10
729.8400672897521
 20
929.7558891866847
 30
0.0
 11
769.8400062545961
 21
963.3197624777004
 31
0.0
  0
LINE
  5
E4
330
1F
100
AcDbEntity
  8
D-2
  6
Continuous
 62
     3
370
     9
100
AcDbLine
 10
729.8400672897521
 20
975.9062244036202
 30
0.0
 11
769.8400062545961
 21
942.34274784112
 31
0.0
  0
LINE
  5
E5
330
1F
100
AcDbEntity
  8
D-2
  6
Continuous
 62
     3
370
     9
100
AcDbLine
 10
729.8400672897521
 20
940.0097400286202
 30
0.0
 11
769.8400062545961
 21
973.5736133196358
 31
0.0
  0
LINE
  5
E6
330
1F
100
AcDbEntity
  8
D-2
  6
Continuous
 62
     3
370
     9
100
AcDbLine
 10
729.8400672897521
 20
986.1600752455549
 30
0.0
 11
769.8400062545961
 21
952.5965986830554
 31
0.0
  0
LINE
  5
E7
330
1F
100
AcDbEntity
  8
D-2
  6
Continuous
 62
     3
370
     9
100
AcDbLine
 10
729.8400672897521
 20
950.2635908705552
 30
0.0
 11
769.8400062545961
 21
983.8274641615706
 31
0.0
  0
LINE
  5
E8
330
1F
100
AcDbEntity
  8
D-2
  6
Continuous
 62
     3
370
     9
100
AcDbLine
 10
729.8400672897521
 20
996.4139260874904
 30
0.0
 11
769.8400062545961
 21
962.8504495249908
 31
0.0
  0
LINE
  5
E9
330
1F
100
AcDbEntity
  8
D-2
  6
Continuous
 62
     3
370
     9
100
AcDbLine
 10
729.8400672897521
 20
960.5174417124906
 30
0.0
 11
769.8400062545961
 21
994.081315003506
 31
0.0
  0
LINE
  5
EA
330
1F
100
AcDbEntity
  8
D-2
  6
Continuous
 62
     3
370
     9
100
AcDbLine
 10
729.8400672897521
 20
1006.667776929426
 30
0.0
 11
769.8400062545961
 21
973.1043003669256
 31
0.0
  0
LINE
  5
EB
330
1F
100
AcDbEntity
  8
D-2
  6
Continuous
 62
     3
370
     9
100
AcDbLine
 10
729.8400672897521
 20
970.771292554426
 30
0.0
 11
769.8400062545961
 21
1004.335165845441
 31
0.0
  0
LINE
  5
EC
330
1F
100
AcDbEntity
  8
D-2
  6
Continuous
 62
     3
370
     9
100
AcDbLine
 10
764.1608172012327
 20
1008.631193381229
 30
0.0
 11
769.8400062545961
 21
1003.865852892732
 31
0.0
  0
LINE
  5
ED
330
1F
100
AcDbEntity
  8
D-2
  6
Continuous
 62
     3
370
     9
100
AcDbLine
 10
729.8400672897521
 20
981.0251433963615
 30
0.0
 11
762.7397360759148
 21
1008.631193381229
 31
0.0
  0
LINE
  5
EE
330
1F
100
AcDbEntity
  8
D-2
  6
Continuous
 62
     3
370
     9
100
AcDbLine
 10
751.9405870630267
 20
1008.631193381229
 30
0.0
 11
769.8400062545961
 21
993.6120020507965
 31
0.0
  0
LINE
  5
EF
330
1F
100
AcDbEntity
  8
D-2
  6
Continuous
 62
     3
370
     9
100
AcDbLine
 10
729.8400672897521
 20
991.2789942382963
 30
0.0
 11
750.5196503821157
 21
1008.631193381229
 31
0.0
  0
LINE
  5
F0
330
1F
100
AcDbEntity
  8
D-2
  6
Continuous
 62
     3
370
     9
100
AcDbLine
 10
739.7203569248212
 20
1008.631193381229
 30
0.0
 11
769.8400062545961
 21
983.358151208861
 31
0.0
  0
LINE
  5
F1
330
1F
100
AcDbEntity
  8
D-2
  6
Continuous
 62
     3
370
     9
100
AcDbLine
 10
729.8400672897521
 20
1001.532845080232
 30
0.0
 11
738.2995646883161
 21
1008.631193381229
 31
0.0
  0
LINE
  5
F2
330
1F
100
AcDbEntity
  8
D-2
  6
Continuous
 62
     3
370
     9
100
AcDbLine
 10
669.7473349939846
 20
888.6318499215586
 30
0.0
 11
669.7473349939846
 21
873.6309954293708
 31
0.0
  0
LINE
  5
F3
330
1F
100
AcDbEntity
  8
D-2
  6
Continuous
 62
     3
370
     9
100
AcDbLine
 10
669.7473349939846
 20
888.6318499215586
 30
0.0
 11
689.7484183680083
 21
858.6308733590577
 31
0.0
  0
LINE
  5
F4
330
1F
100
AcDbEntity
  8
D-2
  6
Continuous
 62
     3
370
     9
100
AcDbLine
 10
689.7484183680083
 20
873.6309954293708
 30
0.0
 11
689.7484183680083
 21
858.6308733590577
 31
0.0
  0
LINE
  5
F5
330
1F
100
AcDbEntity
  8
D-2
  6
Continuous
 62
     3
370
     9
100
AcDbLine
 10
799.8408475499918
 20
873.6309954293708
 30
0.0
 11
689.7484183680083
 21
873.6309954293708
 31
0.0
  0
LINE
  5
F6
330
1F
100
AcDbEntity
  8
D-2
  6
Continuous
 62
     3
370
     9
100
AcDbLine
 10
669.7473349939846
 20
873.6309954293708
 30
0.0
 11
559.8864177173284
 21
873.6309954293708
 31
0.0
  0
LINE
  5
F7
330
1F
100
AcDbEntity
  8
D-A
  6
Continuous
 62
     3
370
     9
100
AcDbLine
 10
769.8400062545961
 20
873.6309954293708
 30
0.0
 11
769.8400062545961
 21
1008.631193381229
 31
0.0
  0
LINE
  5
F8
330
1F
100
AcDbEntity
  8
D-A
  6
Continuous
 62
     3
370
     9
100
AcDbLine
 10
729.8432147242961
 20
873.6309954293708
 30
0.0
 11
729.8432147242961
 21
1008.631193381229
 31
0.0
  0
LINE
  5
F9
330
1F
100
AcDbEntity
  8
D-A
  6
Continuous
 62
     3
370
     9
100
AcDbLine
 10
699.8429920284555
 20
873.6309954293708
 30
0.0
 11
699.8429920284555
 21
1008.631193381229
 31
0.0
  0
LINE
  5
FA
330
1F
100
AcDbEntity
  8
D-A
  6
Continuous
 62
     3
370
     9
100
AcDbLine
 10
659.8437260999294
 20
873.6309954293708
 30
0.0
 11
659.8437260999294
 21
1008.631193381229
 31
0.0
  0
LINE
  5
FB
330
1F
100
AcDbEntity
  8
D-A
  6
Continuous
 62
     3
370
     9
100
AcDbLine
 10
629.8453592027574
 20
873.6309954293708
 30
0.0
 11
629.8453592027574
 21
1008.631193381229
 31
0.0
  0
LINE
  5
FC
330
1F
100
AcDbEntity
  8
D-A
  6
Continuous
 62
     3
370
     9
100
AcDbLine
 10
589.845359202758
 20
873.6309954293708
 30
0.0
 11
589.845359202758
 21
1008.631193381229
 31
0.0
  0
LINE
  5
FD
330
1F
100
AcDbEntity
  8
D-2
  6
Continuous
 62
     3
370
     9
100
AcDbLine
 10
736.2734166359094
 20
873.6309954293708
 30
0.0
 11
769.8400062545961
 21
901.7966574260881
 31
0.0
  0
LINE
  5
FE
330
1F
100
AcDbEntity
  8
D-2
  6
Continuous
 62
     3
370
     9
100
AcDbLine
 10
729.8400672897521
 20
904.1292685100725
 30
0.0
 11
766.1869892032059
 21
873.6309954293708
 31
0.0
  0
LINE
  5
FF
330
1F
100
AcDbEntity
  8
D-2
  6
Continuous
 62
     3
370
     9
100
AcDbLine
 10
729.8400672897521
 20
893.8754176681377
 30
0.0
 11
753.9667590650002
 21
873.6309954293708
 31
0.0
  0
LINE
  5
100
330
1F
100
AcDbEntity
  8
D-2
  6
Continuous
 62
     3
370
     9
100
AcDbLine
 10
729.8432147242961
 20
888.7431268253292
 30
0.0
 11
769.8400062545961
 21
922.304359109959
 31
0.0
  0
LINE
  5
101
330
1F
100
AcDbEntity
  8
D-2
  6
Continuous
 62
     3
370
     9
100
AcDbLine
 10
729.8432147242961
 20
878.4892759833938
 30
0.0
 11
769.8400062545961
 21
912.0505082680236
 31
0.0
  0
LINE
  5
102
330
1F
100
AcDbEntity
  8
D-2
  6
Continuous
 62
     3
370
     9
100
AcDbLine
 10
729.8400672897521
 20
914.383119352008
 30
0.0
 11
769.8400062545961
 21
880.8196427895086
 31
0.0
  0
LINE
  5
103
330
1F
100
AcDbEntity
  8
D-2
  6
Continuous
 62
     3
370
     9
100
AcDbLine
 10
748.4935023297082
 20
873.6309954293708
 30
0.0
 11
769.8400062545961
 21
891.5428065841534
 31
0.0
  0
LINE
  5
104
330
1F
100
AcDbEntity
  8
D-2
  6
Continuous
 62
     3
370
     9
100
AcDbLine
 10
760.7135880235069
 20
873.6309954293708
 30
0.0
 11
769.8400062545959
 21
881.2889557422181
 31
0.0
  0
LINE
  5
105
330
1F
100
AcDbEntity
  8
D-2
  6
Continuous
 62
     3
370
     9
100
AcDbLine
 10
729.8400672897519
 20
883.6215668262025
 30
0.0
 11
741.7465289267942
 21
873.6309954293708
 31
0.0
  0
LINE
  5
106
330
1F
100
AcDbEntity
  8
D-2
  6
Continuous
 62
     3
370
     9
100
AcDbLine
 10
659.8405786653855
 20
924.6369701939434
 30
0.0
 11
699.8405176302294
 21
891.0734936314432
 31
0.0
  0
LINE
  5
107
330
1F
100
AcDbEntity
  8
D-2
  6
Continuous
 62
     3
370
     9
100
AcDbLine
 10
659.8405786653855
 20
934.8908210358788
 30
0.0
 11
699.8405176302294
 21
901.3273444733786
 31
0.0
  0
LINE
  5
108
330
1F
100
AcDbEntity
  8
D-2
  6
Continuous
 62
     3
370
     9
100
AcDbLine
 10
659.8405786653855
 20
898.9943366608791
 30
0.0
 11
699.8405176302294
 21
932.5582099518945
 31
0.0
  0
LINE
  5
109
330
1F
100
AcDbEntity
  8
D-2
  6
Continuous
 62
     3
370
     9
100
AcDbLine
 10
659.8405786653855
 20
945.1446718778138
 30
0.0
 11
699.8405176302294
 21
911.5811953153141
 31
0.0
  0
LINE
  5
10A
330
1F
100
AcDbEntity
  8
D-2
  6
Continuous
 62
     3
370
     9
100
AcDbLine
 10
659.8405786653855
 20
909.2481875028138
 30
0.0
 11
699.8405176302294
 21
942.8120607938295
 31
0.0
  0
LINE
  5
10B
330
1F
100
AcDbEntity
  8
D-2
  6
Continuous
 62
     3
370
     9
100
AcDbLine
 10
659.8405786653855
 20
955.3985227197493
 30
0.0
 11
699.8405176302294
 21
921.8350461572495
 31
0.0
  0
LINE
  5
10C
330
1F
100
AcDbEntity
  8
D-2
  6
Continuous
 62
     3
370
     9
100
AcDbLine
 10
659.8405786653855
 20
919.5020383447493
 30
0.0
 11
699.8405176302294
 21
953.0659116357649
 31
0.0
  0
LINE
  5
10D
330
1F
100
AcDbEntity
  8
D-2
  6
Continuous
 62
     3
370
     9
100
AcDbLine
 10
659.8405786653855
 20
965.6523735616847
 30
0.0
 11
699.8405176302294
 21
932.0888969991845
 31
0.0
  0
LINE
  5
10E
330
1F
100
AcDbEntity
  8
D-2
  6
Continuous
 62
     3
370
     9
100
AcDbLine
 10
659.8405786653855
 20
929.7558891866847
 30
0.0
 11
699.8405176302294
 21
963.3197624777004
 31
0.0
  0
LINE
  5
10F
330
1F
100
AcDbEntity
  8
D-2
  6
Continuous
 62
     3
370
     9
100
AcDbLine
 10
659.8405786653855
 20
975.9062244036202
 30
0.0
 11
699.8405176302294
 21
942.34274784112
 31
0.0
  0
LINE
  5
110
330
1F
100
AcDbEntity
  8
D-2
  6
Continuous
 62
     3
370
     9
100
AcDbLine
 10
659.8405786653855
 20
940.0097400286202
 30
0.0
 11
699.8405176302294
 21
973.5736133196358
 31
0.0
  0
LINE
  5
111
330
1F
100
AcDbEntity
  8
D-2
  6
Continuous
 62
     3
370
     9
100
AcDbLine
 10
659.8405786653855
 20
986.1600752455549
 30
0.0
 11
699.8405176302294
 21
952.5965986830554
 31
0.0
  0
LINE
  5
112
330
1F
100
AcDbEntity
  8
D-2
  6
Continuous
 62
     3
370
     9
100
AcDbLine
 10
659.8405786653855
 20
950.2635908705552
 30
0.0
 11
699.8405176302294
 21
983.8274641615706
 31
0.0
  0
LINE
  5
113
330
1F
100
AcDbEntity
  8
D-2
  6
Continuous
 62
     3
370
     9
100
AcDbLine
 10
659.8405786653855
 20
996.4139260874904
 30
0.0
 11
699.8405176302294
 21
962.8504495249908
 31
0.0
  0
LINE
  5
114
330
1F
100
AcDbEntity
  8
D-2
  6
Continuous
 62
     3
370
     9
100
AcDbLine
 10
659.8405786653855
 20
960.5174417124906
 30
0.0
 11
699.8405176302294
 21
994.081315003506
 31
0.0
  0
LINE
  5
115
330
1F
100
AcDbEntity
  8
D-2
  6
Continuous
 62
     3
370
     9
100
AcDbLine
 10
659.8405786653855
 20
1006.667776929426
 30
0.0
 11
699.8405176302294
 21
973.1043003669256
 31
0.0
  0
LINE
  5
116
330
1F
100
AcDbEntity
  8
D-2
  6
Continuous
 62
     3
370
     9
100
AcDbLine
 10
659.8405786653855
 20
970.771292554426
 30
0.0
 11
699.8405176302294
 21
1004.335165845441
 31
0.0
  0
LINE
  5
117
330
1F
100
AcDbEntity
  8
D-2
  6
Continuous
 62
     3
370
     9
100
AcDbLine
 10
694.161328576866
 20
1008.631193381229
 30
0.0
 11
699.8405176302294
 21
1003.865852892732
 31
0.0
  0
LINE
  5
118
330
1F
100
AcDbEntity
  8
D-2
  6
Continuous
 62
     3
370
     9
100
AcDbLine
 10
659.8405786653855
 20
981.0251433963615
 30
0.0
 11
692.7402474515482
 21
1008.631193381229
 31
0.0
  0
LINE
  5
119
330
1F
100
AcDbEntity
  8
D-2
  6
Continuous
 62
     3
370
     9
100
AcDbLine
 10
681.94109843866
 20
1008.631193381229
 30
0.0
 11
699.8405176302294
 21
993.6120020507965
 31
0.0
  0
LINE
  5
11A
330
1F
100
AcDbEntity
  8
D-2
  6
Continuous
 62
     3
370
     9
100
AcDbLine
 10
659.8405786653855
 20
991.2789942382963
 30
0.0
 11
680.5201617577491
 21
1008.631193381229
 31
0.0
  0
LINE
  5
11B
330
1F
100
AcDbEntity
  8
D-2
  6
Continuous
 62
     3
370
     9
100
AcDbLine
 10
669.7208683004545
 20
1008.631193381229
 30
0.0
 11
699.8405176302294
 21
983.358151208861
 31
0.0
  0
LINE
  5
11C
330
1F
100
AcDbEntity
  8
D-2
  6
Continuous
 62
     3
370
     9
100
AcDbLine
 10
659.8405786653855
 20
1001.532845080232
 30
0.0
 11
668.3000760639494
 21
1008.631193381229
 31
0.0
  0
LINE
  5
11D
330
1F
100
AcDbEntity
  8
D-2
  6
Continuous
 62
     3
370
     9
100
AcDbLine
 10
659.8405786653855
 20
904.1292685100725
 30
0.0
 11
696.1875005788393
 21
873.6309954293708
 31
0.0
  0
LINE
  5
11E
330
1F
100
AcDbEntity
  8
D-2
  6
Continuous
 62
     3
370
     9
100
AcDbLine
 10
659.8437260999294
 20
888.7431268253292
 30
0.0
 11
699.8405176302294
 21
922.304359109959
 31
0.0
  0
LINE
  5
11F
330
1F
100
AcDbEntity
  8
D-2
  6
Continuous
 62
     3
370
     9
100
AcDbLine
 10
659.8405786653855
 20
914.383119352008
 30
0.0
 11
699.8405176302294
 21
880.8196427895086
 31
0.0
  0
LINE
  5
120
330
1F
100
AcDbEntity
  8
D-2
  6
Continuous
 62
     3
370
     9
100
AcDbLine
 10
589.842211768214
 20
924.6369701939434
 30
0.0
 11
629.842150733058
 21
891.0734936314432
 31
0.0
  0
LINE
  5
121
330
1F
100
AcDbEntity
  8
D-2
  6
Continuous
 62
     3
370
     9
100
AcDbLine
 10
589.842211768214
 20
934.8908210358788
 30
0.0
 11
629.842150733058
 21
901.3273444733786
 31
0.0
  0
LINE
  5
122
330
1F
100
AcDbEntity
  8
D-2
  6
Continuous
 62
     3
370
     9
100
AcDbLine
 10
589.842211768214
 20
898.9943366608791
 30
0.0
 11
629.842150733058
 21
932.5582099518945
 31
0.0
  0
LINE
  5
123
330
1F
100
AcDbEntity
  8
D-2
  6
Continuous
 62
     3
370
     9
100
AcDbLine
 10
589.842211768214
 20
945.1446718778138
 30
0.0
 11
629.842150733058
 21
911.5811953153141
 31
0.0
  0
LINE
  5
124
330
1F
100
AcDbEntity
  8
D-2
  6
Continuous
 62
     3
370
     9
100
AcDbLine
 10
589.842211768214
 20
909.2481875028138
 30
0.0
 11
629.842150733058
 21
942.8120607938295
 31
0.0
  0
LINE
  5
125
330
1F
100
AcDbEntity
  8
D-2
  6
Continuous
 62
     3
370
     9
100
AcDbLine
 10
589.842211768214
 20
955.3985227197493
 30
0.0
 11
629.842150733058
 21
921.8350461572495
 31
0.0
  0
LINE
  5
126
330
1F
100
AcDbEntity
  8
D-2
  6
Continuous
 62
     3
370
     9
100
AcDbLine
 10
589.842211768214
 20
919.5020383447493
 30
0.0
 11
629.842150733058
 21
953.0659116357649
 31
0.0
  0
LINE
  5
127
330
1F
100
AcDbEntity
  8
D-2
  6
Continuous
 62
     3
370
     9
100
AcDbLine
 10
589.842211768214
 20
965.6523735616847
 30
0.0
 11
629.842150733058
 21
932.0888969991845
 31
0.0
  0
LINE
  5
128
330
1F
100
AcDbEntity
  8
D-2
  6
Continuous
 62
     3
370
     9
100
AcDbLine
 10
589.842211768214
 20
929.7558891866847
 30
0.0
 11
629.842150733058
 21
963.3197624777004
 31
0.0
  0
LINE
  5
129
330
1F
100
AcDbEntity
  8
D-2
  6
Continuous
 62
     3
370
     9
100
AcDbLine
 10
589.842211768214
 20
975.9062244036202
 30
0.0
 11
629.842150733058
 21
942.34274784112
 31
0.0
  0
LINE
  5
12A
330
1F
100
AcDbEntity
  8
D-2
  6
Continuous
 62
     3
370
     9
100
AcDbLine
 10
589.842211768214
 20
940.0097400286202
 30
0.0
 11
629.842150733058
 21
973.5736133196358
 31
0.0
  0
LINE
  5
12B
330
1F
100
AcDbEntity
  8
D-2
  6
Continuous
 62
     3
370
     9
100
AcDbLine
 10
589.842211768214
 20
986.1600752455549
 30
0.0
 11
629.842150733058
 21
952.5965986830554
 31
0.0
  0
LINE
  5
12C
330
1F
100
AcDbEntity
  8
D-2
  6
Continuous
 62
     3
370
     9
100
AcDbLine
 10
589.842211768214
 20
950.2635908705552
 30
0.0
 11
629.842150733058
 21
983.8274641615706
 31
0.0
  0
LINE
  5
12D
330
1F
100
AcDbEntity
  8
D-2
  6
Continuous
 62
     3
370
     9
100
AcDbLine
 10
589.842211768214
 20
996.4139260874904
 30
0.0
 11
629.842150733058
 21
962.8504495249908
 31
0.0
  0
LINE
  5
12E
330
1F
100
AcDbEntity
  8
D-2
  6
Continuous
 62
     3
370
     9
100
AcDbLine
 10
589.842211768214
 20
960.5174417124906
 30
0.0
 11
629.842150733058
 21
994.081315003506
 31
0.0
  0
LINE
  5
12F
330
1F
100
AcDbEntity
  8
D-2
  6
Continuous
 62
     3
370
     9
100
AcDbLine
 10
589.842211768214
 20
1006.667776929426
 30
0.0
 11
629.842150733058
 21
973.1043003669256
 31
0.0
  0
LINE
  5
130
330
1F
100
AcDbEntity
  8
D-2
  6
Continuous
 62
     3
370
     9
100
AcDbLine
 10
589.842211768214
 20
970.771292554426
 30
0.0
 11
629.842150733058
 21
1004.335165845441
 31
0.0
  0
LINE
  5
131
330
1F
100
AcDbEntity
  8
D-2
  6
Continuous
 62
     3
370
     9
100
AcDbLine
 10
624.1629616796946
 20
1008.631193381229
 30
0.0
 11
629.842150733058
 21
1003.865852892732
 31
0.0
  0
LINE
  5
132
330
1F
100
AcDbEntity
  8
D-2
  6
Continuous
 62
     3
370
     9
100
AcDbLine
 10
589.842211768214
 20
981.0251433963615
 30
0.0
 11
622.7418805543767
 21
1008.631193381229
 31
0.0
  0
LINE
  5
133
330
1F
100
AcDbEntity
  8
D-2
  6
Continuous
 62
     3
370
     9
100
AcDbLine
 10
611.9427315414886
 20
1008.631193381229
 30
0.0
 11
629.842150733058
 21
993.6120020507965
 31
0.0
  0
LINE
  5
134
330
1F
100
AcDbEntity
  8
D-2
  6
Continuous
 62
     3
370
     9
100
AcDbLine
 10
589.842211768214
 20
991.2789942382963
 30
0.0
 11
610.5217948605776
 21
1008.631193381229
 31
0.0
  0
LINE
  5
135
330
1F
100
AcDbEntity
  8
D-2
  6
Continuous
 62
     3
370
     9
100
AcDbLine
 10
599.7225014032831
 20
1008.631193381229
 30
0.0
 11
629.842150733058
 21
983.358151208861
 31
0.0
  0
LINE
  5
136
330
1F
100
AcDbEntity
  8
D-2
  6
Continuous
 62
     3
370
     9
100
AcDbLine
 10
589.842211768214
 20
1001.532845080232
 30
0.0
 11
598.301709166778
 21
1008.631193381229
 31
0.0
  0
LINE
  5
137
330
1F
100
AcDbEntity
  8
D-2
  6
Continuous
 62
     3
370
     9
100
AcDbLine
 10
596.2755611143713
 20
873.6309954293708
 30
0.0
 11
629.842150733058
 21
901.7966574260881
 31
0.0
  0
LINE
  5
138
330
1F
100
AcDbEntity
  8
D-2
  6
Continuous
 62
     3
370
     9
100
AcDbLine
 10
589.842211768214
 20
904.1292685100725
 30
0.0
 11
626.1891336816678
 21
873.6309954293708
 31
0.0
  0
LINE
  5
139
330
1F
100
AcDbEntity
  8
D-2
  6
Continuous
 62
     3
370
     9
100
AcDbLine
 10
589.842211768214
 20
893.8754176681377
 30
0.0
 11
613.9689035434621
 21
873.6309954293708
 31
0.0
  0
LINE
  5
13A
330
1F
100
AcDbEntity
  8
D-2
  6
Continuous
 62
     3
370
     9
100
AcDbLine
 10
589.845359202758
 20
888.7431268253292
 30
0.0
 11
629.842150733058
 21
922.304359109959
 31
0.0
  0
LINE
  5
13B
330
1F
100
AcDbEntity
  8
D-2
  6
Continuous
 62
     3
370
     9
100
AcDbLine
 10
589.845359202758
 20
878.4892759833938
 30
0.0
 11
629.842150733058
 21
912.0505082680236
 31
0.0
  0
LINE
  5
13C
330
1F
100
AcDbEntity
  8
D-2
  6
Continuous
 62
     3
370
     9
100
AcDbLine
 10
589.842211768214
 20
914.383119352008
 30
0.0
 11
629.842150733058
 21
880.8196427895086
 31
0.0
  0
LINE
  5
13D
330
1F
100
AcDbEntity
  8
D-2
  6
Continuous
 62
     3
370
     9
100
AcDbLine
 10
608.4956468081701
 20
873.6309954293708
 30
0.0
 11
629.842150733058
 21
891.5428065841534
 31
0.0
  0
LINE
  5
13E
330
1F
100
AcDbEntity
  8
D-2
  6
Continuous
 62
     3
370
     9
100
AcDbLine
 10
620.7157325019688
 20
873.6309954293708
 30
0.0
 11
629.8421507330578
 21
881.2889557422181
 31
0.0
  0
LINE
  5
13F
330
1F
100
AcDbEntity
  8
D-2
  6
Continuous
 62
     3
370
     9
100
AcDbLine
 10
589.8422117682138
 20
883.6215668262025
 30
0.0
 11
601.7486734052561
 21
873.6309954293708
 31
0.0
  0
LINE
  5
140
330
1F
100
AcDbEntity
  8
D-2
  6
Continuous
 62
     3
370
     9
100
AcDbLine
 10
659.8405786653852
 20
883.6215668262025
 30
0.0
 11
669.7473349939846
 21
875.3089245459832
 31
0.0
  0
LINE
  5
141
330
1F
100
AcDbEntity
  8
D-2
  6
Continuous
 62
     3
370
     9
100
AcDbLine
 10
666.2739280115427
 20
873.6309954293708
 30
0.0
 11
669.7473349939846
 21
876.5455246727597
 31
0.0
  0
LINE
  5
142
330
1F
100
AcDbEntity
  8
D-2
  6
Continuous
 62
     3
370
     9
100
AcDbLine
 10
659.8405786653855
 20
893.8754176681377
 30
0.0
 11
669.7473349939846
 21
885.5627753879187
 31
0.0
  0
LINE
  5
143
330
1F
100
AcDbEntity
  8
D-2
  6
Continuous
 62
     3
370
     9
100
AcDbLine
 10
659.8437260999294
 20
878.4892759833938
 30
0.0
 11
669.7473349939846
 21
886.7993755146952
 31
0.0
  0
LINE
  5
144
330
1F
100
AcDbEntity
  8
D-2
  6
Continuous
 62
     3
370
     9
100
AcDbLine
 10
670.5307565178499
 20
887.4567430367701
 30
0.0
 11
699.8405176302294
 21
912.0505082680236
 31
0.0
  0
LINE
  5
145
330
1F
100
AcDbEntity
  8
D-2
  6
Continuous
 62
     3
370
     9
100
AcDbLine
 10
679.2982322566535
 20
874.3058136979249
 30
0.0
 11
699.8405176302294
 21
891.5428065841534
 31
0.0
  0
LINE
  5
146
330
1F
100
AcDbEntity
  8
D-2
  6
Continuous
 62
     3
370
     9
100
AcDbLine
 10
674.9144943872518
 20
880.8812783673475
 30
0.0
 11
699.8405176302294
 21
901.7966574260881
 31
0.0
  0
LINE
  5
147
330
1F
100
AcDbEntity
  8
D-2
  6
Continuous
 62
     3
370
     9
100
AcDbLine
 10
674.3912603686891
 20
881.6661124302857
 30
0.0
 11
689.7484183680083
 21
868.7801024533758
 31
0.0
  0
LINE
  5
148
330
1F
100
AcDbEntity
  8
D-2
  6
Continuous
 62
     3
370
     9
100
AcDbLine
 10
690.7140993991403
 20
873.6309954293708
 30
0.0
 11
699.8405176302292
 21
881.2889557422181
 31
0.0
  0
LINE
  5
149
330
1F
100
AcDbEntity
  8
D-2
  6
Continuous
 62
     3
370
     9
100
AcDbLine
 10
683.6819701260551
 20
867.7303490285024
 30
0.0
 11
689.7484183680083
 21
872.8206942987381
 31
0.0
  0
LINE
  5
14A
330
1F
100
AcDbEntity
  8
D-5
  6
Continuous
 62
     7
370
     9
100
AcDbLine
 10
769.8400062545961
 20
903.6309954293708
 30
0.0
 11
789.6738397618772
 21
918.8500311545888
 31
0.0
  0
LINE
  5
14B
330
1F
100
AcDbEntity
  8
D-5
  6
Continuous
 62
     7
370
     9
100
AcDbLine
 10
769.8400062545961
 20
903.6309954293708
 30
0.0
 11
785.0590419798142
 21
923.4648289366512
 31
0.0
  0
LINE
  5
14C
330
1F
100
AcDbEntity
  8
D-5
  6
Continuous
 62
     7
370
     9
100
AcDbLine
 10
769.8400062545961
 20
903.6309954293708
 30
0.0
 11
825.0122287473341
 21
958.8032179221085
 31
0.0
  0
LINE
  5
14D
330
1F
100
AcDbEntity
  8
D-5
  6
Continuous
 62
     7
370
     9
100
AcDbLine
 10
825.0122287473341
 20
958.8032179221085
 30
0.0
 11
1063.929457063709
 21
958.8032179221085
 31
0.0
  0
TEXT
  5
14E
330
1F
100
AcDbEntity
  8
D-5
  6
Continuous
 62
     7
370
     9
100
AcDbText
 10
825.0122287473341
 20
968.0332179221085
 30
0.0
 40
22.86
  1
ローレット模様
 41
1.142857142857143
  7
ＭＳ ゴシック
100
AcDbText
  0
LINE
  5
14F
330
1F
100
AcDbEntity
  8
D-A
  6
Continuous
 62
     3
370
     9
100
AcDbLine
 10
559.8864177173284
 20
675.8809954293715
 30
0.0
 11
589.845359202758
 21
675.8809954293715
 31
0.0
  0
LINE
  5
150
330
1F
100
AcDbEntity
  8
D-A
  6
Continuous
 62
     3
370
     9
100
AcDbLine
 10
769.837531856369
 20
675.8809954293715
 30
0.0
 11
799.8408475499918
 21
675.8809954293715
 31
0.0
  0
LINE
  5
151
330
1F
100
AcDbEntity
  8
D-A
  6
Continuous
 62
     3
370
     9
100
AcDbLine
 10
699.8405176302283
 20
675.8809954293715
 30
0.0
 11
729.8382659278429
 21
675.8809954293715
 31
0.0
  0
LINE
  5
152
330
1F
100
AcDbEntity
  8
D-A
  6
Continuous
 62
     3
370
     9
100
AcDbLine
 10
629.8453592027574
 20
675.8809954293715
 30
0.0
 11
659.8437260999294
 21
675.8809954293715
 31
0.0
  0
LINE
  5
153
330
1F
100
AcDbEntity
  8
D-A
  6
Continuous
 62
     3
370
     9
100
AcDbLine
 10
559.8864177173284
 20
711.3809954293733
 30
0.0
 11
589.845359202758
 21
711.3809954293733
 31
0.0
  0
LINE
  5
154
330
1F
100
AcDbEntity
  8
D-A
  6
Continuous
 62
     3
370
     9
100
AcDbLine
 10
769.837531856369
 20
711.3809954293733
 30
0.0
 11
799.8408475499918
 21
711.3809954293733
 31
0.0
  0
LINE
  5
155
330
1F
100
AcDbEntity
  8
D-A
  6
Continuous
 62
     3
370
     9
100
AcDbLine
 10
699.8405176302283
 20
711.3809954293733
 30
0.0
 11
729.8382659278429
 21
711.3809954293733
 31
0.0
  0
LINE
  5
156
330
1F
100
AcDbEntity
  8
D-A
  6
Continuous
 62
     3
370
     9
100
AcDbLine
 10
629.8453592027574
 20
711.3809954293733
 30
0.0
 11
659.8437260999294
 21
711.3809954293733
 31
0.0
  0
LINE
  5
157
330
1F
100
AcDbEntity
  8
D-A
  6
Continuous
 62
     3
370
     9
100
AcDbLine
 10
629.8453592027574
 20
693.6309954293708
 30
0.0
 11
659.8437260999294
 21
693.6309954293708
 31
0.0
  0
LINE
  5
158
330
1F
100
AcDbEntity
  8
D-A
  6
Continuous
 62
     3
370
     9
100
AcDbLine
 10
699.8405176302283
 20
693.6309954293708
 30
0.0
 11
729.8382659278429
 21
693.6309954293708
 31
0.0
  0
LINE
  5
159
330
1F
100
AcDbEntity
  8
D-A
  6
Continuous
 62
     3
370
     9
100
AcDbLine
 10
769.837531856369
 20
693.6309954293708
 30
0.0
 11
799.8408475499918
 21
693.6309954293708
 31
0.0
  0
LINE
  5
15A
330
1F
100
AcDbEntity
  8
D-A
  6
Continuous
 62
     3
370
     9
100
AcDbLine
 10
559.8864177173284
 20
693.6309954293708
 30
0.0
 11
589.845359202758
 21
693.6309954293708
 31
0.0
  0
LINE
  5
15B
330
1F
100
AcDbEntity
  8
D-2
  6
Continuous
 62
     3
370
     9
100
AcDbLine
 10
729.8275340740197
 20
622.9501575523377
 30
0.0
 11
764.7673535487924
 21
593.6308717094594
 31
0.0
  0
LINE
  5
15C
330
1F
100
AcDbEntity
  8
D-2
  6
Continuous
 62
     3
370
     9
100
AcDbLine
 10
729.8271759821416
 20
612.6960596773315
 30
0.0
 11
752.54717773866
 21
593.6308717094594
 31
0.0
  0
LINE
  5
15D
330
1F
100
AcDbEntity
  8
D-2
  6
Continuous
 62
     3
370
     9
100
AcDbLine
 10
729.8268178902636
 20
602.441961802326
 30
0.0
 11
740.3270019285283
 21
593.6308717094594
 31
0.0
  0
LINE
  5
15E
330
1F
100
AcDbEntity
  8
D-2
  6
Continuous
 62
     3
370
     9
100
AcDbLine
 10
762.10584775648
 20
593.6308717094594
 30
0.0
 11
769.8400062545961
 21
600.1205941745561
 31
0.0
  0
LINE
  5
15F
330
1F
100
AcDbEntity
  8
D-2
  6
Continuous
 62
     3
370
     9
100
AcDbLine
 10
729.8382014380031
 20
802.3924713284689
 30
0.0
 11
769.8400062545961
 21
835.9579343876883
 31
0.0
  0
LINE
  5
160
330
1F
100
AcDbEntity
  8
D-2
  6
Continuous
 62
     3
370
     9
100
AcDbLine
 10
729.8346959115811
 20
828.0321150524592
 30
0.0
 11
769.8400062545961
 21
794.4621897691644
 31
0.0
  0
LINE
  5
161
330
1F
100
AcDbEntity
  8
D-2
  6
Continuous
 62
     3
370
     9
100
AcDbLine
 10
729.837843346125
 20
792.1383734534627
 30
0.0
 11
769.8400062545961
 21
825.7041369871174
 31
0.0
  0
LINE
  5
162
330
1F
100
AcDbEntity
  8
D-2
  6
Continuous
 62
     3
370
     9
100
AcDbLine
 10
729.834337819703
 20
817.7780171774532
 30
0.0
 11
769.8400062545961
 21
784.2077914061108
 31
0.0
  0
LINE
  5
163
330
1F
100
AcDbEntity
  8
D-2
  6
Continuous
 62
     3
370
     9
100
AcDbLine
 10
729.837485254247
 20
781.8842755784567
 30
0.0
 11
769.8400062545961
 21
815.4503395865468
 31
0.0
  0
LINE
  5
164
330
1F
100
AcDbEntity
  8
D-2
  6
Continuous
 62
     3
370
     9
100
AcDbLine
 10
729.833979727825
 20
807.5239193024472
 30
0.0
 11
769.8400062545961
 21
773.9533930430573
 31
0.0
  0
LINE
  5
165
330
1F
100
AcDbEntity
  8
D-2
  6
Continuous
 62
     3
370
     9
100
AcDbLine
 10
729.8371271623689
 20
771.6301777034507
 30
0.0
 11
769.8400062545961
 21
805.1965421859754
 31
0.0
  0
LINE
  5
166
330
1F
100
AcDbEntity
  8
D-2
  6
Continuous
 62
     3
370
     9
100
AcDbLine
 10
729.8336216359469
 20
797.269821427441
 30
0.0
 11
769.8400062545961
 21
763.698994680004
 31
0.0
  0
LINE
  5
167
330
1F
100
AcDbEntity
  8
D-2
  6
Continuous
 62
     3
370
     9
100
AcDbLine
 10
729.8367690704908
 20
761.3760798284445
 30
0.0
 11
769.8400062545961
 21
794.9427447854046
 31
0.0
  0
LINE
  5
168
330
1F
100
AcDbEntity
  8
D-2
  6
Continuous
 62
     3
370
     9
100
AcDbLine
 10
729.8332635440688
 20
787.0157235524348
 30
0.0
 11
769.8400062545961
 21
753.4445963169505
 31
0.0
  0
LINE
  5
169
330
1F
100
AcDbEntity
  8
D-2
  6
Continuous
 62
     3
370
     9
100
AcDbLine
 10
729.8364109786128
 20
751.1219819534383
 30
0.0
 11
769.8400062545961
 21
784.6889473848336
 31
0.0
  0
LINE
  5
16A
330
1F
100
AcDbEntity
  8
D-2
  6
Continuous
 62
     3
370
     9
100
AcDbLine
 10
729.8329054521907
 20
776.7616256774289
 30
0.0
 11
769.8400062545961
 21
743.1901979538969
 31
0.0
  0
LINE
  5
16B
330
1F
100
AcDbEntity
  8
D-2
  6
Continuous
 62
     3
370
     9
100
AcDbLine
 10
729.8360528867347
 20
740.8678840784324
 30
0.0
 11
769.8400062545961
 21
774.4351499842626
 31
0.0
  0
LINE
  5
16C
330
1F
100
AcDbEntity
  8
D-2
  6
Continuous
 62
     3
370
     9
100
AcDbLine
 10
729.8325473603127
 20
766.507527802423
 30
0.0
 11
769.8400062545961
 21
732.9357995908433
 31
0.0
  0
LINE
  5
16D
330
1F
100
AcDbEntity
  8
D-2
  6
Continuous
 62
     3
370
     9
100
AcDbLine
 10
729.8356947948566
 20
730.6137862034266
 30
0.0
 11
769.8400062545961
 21
764.1813525836917
 31
0.0
  0
LINE
  5
16E
330
1F
100
AcDbEntity
  8
D-2
  6
Continuous
 62
     3
370
     9
100
AcDbLine
 10
729.8321892684346
 20
756.2534299274168
 30
0.0
 11
769.8400062545961
 21
722.6814012277898
 31
0.0
  0
LINE
  5
16F
330
1F
100
AcDbEntity
  8
D-2
  6
Continuous
 62
     3
370
     9
100
AcDbLine
 10
729.8353367029786
 20
720.3596883284204
 30
0.0
 11
769.8400062545961
 21
753.9275551831207
 31
0.0
  0
LINE
  5
170
330
1F
100
AcDbEntity
  8
D-2
  6
Continuous
 62
     3
370
     9
100
AcDbLine
 10
729.8318311765565
 20
745.9993320524106
 30
0.0
 11
769.8400062545961
 21
712.4270028647366
 31
0.0
  0
LINE
  5
171
330
1F
100
AcDbEntity
  8
D-2
  6
Continuous
 62
     3
370
     9
100
AcDbLine
 10
729.8349786111005
 20
710.1055904534142
 30
0.0
 11
769.8400062545961
 21
743.6737577825497
 31
0.0
  0
LINE
  5
172
330
1F
100
AcDbEntity
  8
D-2
  6
Continuous
 62
     3
370
     9
100
AcDbLine
 10
729.8314730846785
 20
735.7452341774047
 30
0.0
 11
769.8400062545961
 21
702.172604501683
 31
0.0
  0
LINE
  5
173
330
1F
100
AcDbEntity
  8
D-2
  6
Continuous
 62
     3
370
     9
100
AcDbLine
 10
729.8346205192224
 20
699.8514925784079
 30
0.0
 11
769.8400062545961
 21
733.4199603819789
 31
0.0
  0
LINE
  5
174
330
1F
100
AcDbEntity
  8
D-2
  6
Continuous
 62
     3
370
     9
100
AcDbLine
 10
729.8311149928004
 20
725.4911363023987
 30
0.0
 11
769.8400062545961
 21
691.9182061386298
 31
0.0
  0
LINE
  5
175
330
1F
100
AcDbEntity
  8
D-2
  6
Continuous
 62
     3
370
     9
100
AcDbLine
 10
729.8342624273444
 20
689.5973947034022
 30
0.0
 11
769.8400062545961
 21
723.1661629814075
 31
0.0
  0
LINE
  5
176
330
1F
100
AcDbEntity
  8
D-2
  6
Continuous
 62
     3
370
     9
100
AcDbLine
 10
729.8307569009223
 20
715.2370384273925
 30
0.0
 11
769.8400062545961
 21
681.6638077755758
 31
0.0
  0
LINE
  5
177
330
1F
100
AcDbEntity
  8
D-2
  6
Continuous
 62
     3
370
     9
100
AcDbLine
 10
729.8339043354663
 20
679.343296828396
 30
0.0
 11
769.8400062545961
 21
712.9123655808369
 31
0.0
  0
LINE
  5
178
330
1F
100
AcDbEntity
  8
D-2
  6
Continuous
 62
     3
370
     9
100
AcDbLine
 10
729.8303988090443
 20
704.9829405523863
 30
0.0
 11
769.8400062545961
 21
671.4094094125223
 31
0.0
  0
LINE
  5
179
330
1F
100
AcDbEntity
  8
D-2
  6
Continuous
 62
     3
370
     9
100
AcDbLine
 10
729.8335462435882
 20
669.0891989533898
 30
0.0
 11
769.8400062545961
 21
702.6585681802655
 31
0.0
  0
LINE
  5
17A
330
1F
100
AcDbEntity
  8
D-2
  6
Continuous
 62
     3
370
     9
100
AcDbLine
 10
729.8300407171662
 20
694.72884267738
 30
0.0
 11
769.8400062545961
 21
661.1550110494691
 31
0.0
  0
LINE
  5
17B
330
1F
100
AcDbEntity
  8
D-2
  6
Continuous
 62
     3
370
     9
100
AcDbLine
 10
729.8331881517101
 20
658.8351010783836
 30
0.0
 11
769.8400062545961
 21
692.4047707796947
 31
0.0
  0
LINE
  5
17C
330
1F
100
AcDbEntity
  8
D-2
  6
Continuous
 62
     3
370
     9
100
AcDbLine
 10
729.8296826252881
 20
684.4747448023745
 30
0.0
 11
769.8400062545961
 21
650.9006126864156
 31
0.0
  0
LINE
  5
17D
330
1F
100
AcDbEntity
  8
D-2
  6
Continuous
 62
     3
370
     9
100
AcDbLine
 10
729.8328300598321
 20
648.581003203378
 30
0.0
 11
769.8400062545961
 21
682.150973379124
 31
0.0
  0
LINE
  5
17E
330
1F
100
AcDbEntity
  8
D-2
  6
Continuous
 62
     3
370
     9
100
AcDbLine
 10
729.82932453341
 20
674.2206469273683
 30
0.0
 11
769.8400062545961
 21
640.6462143233623
 31
0.0
  0
LINE
  5
17F
330
1F
100
AcDbEntity
  8
D-2
  6
Continuous
 62
     3
370
     9
100
AcDbLine
 10
729.832471967954
 20
638.3269053283718
 30
0.0
 11
769.8400062545961
 21
671.8971759785527
 31
0.0
  0
LINE
  5
180
330
1F
100
AcDbEntity
  8
D-2
  6
Continuous
 62
     3
370
     9
100
AcDbLine
 10
729.8321138760759
 20
628.0728074533656
 30
0.0
 11
769.8400062545961
 21
661.6433785779818
 31
0.0
  0
LINE
  5
181
330
1F
100
AcDbEntity
  8
D-2
  6
Continuous
 62
     3
370
     9
100
AcDbLine
 10
729.8317557841979
 20
617.8187095783594
 30
0.0
 11
769.8400062545961
 21
651.3895811774112
 31
0.0
  0
LINE
  5
182
330
1F
100
AcDbEntity
  8
D-2
  6
Continuous
 62
     3
370
     9
100
AcDbLine
 10
729.8313976923198
 20
607.5646117033536
 30
0.0
 11
769.8400062545961
 21
641.1357837768398
 31
0.0
  0
LINE
  5
183
330
1F
100
AcDbEntity
  8
D-2
  6
Continuous
 62
     3
370
     9
100
AcDbLine
 10
729.8310396004417
 20
597.3105138283474
 30
0.0
 11
769.8400062545961
 21
630.881986376269
 31
0.0
  0
LINE
  5
184
330
1F
100
AcDbEntity
  8
D-2
  6
Continuous
 62
     3
370
     9
100
AcDbLine
 10
749.8858345386419
 20
593.6308717094594
 30
0.0
 11
769.8400062545961
 21
610.374391575127
 31
0.0
  0
LINE
  5
185
330
1F
100
AcDbEntity
  8
D-2
  6
Continuous
 62
     3
370
     9
100
AcDbLine
 10
737.6658213208033
 20
593.6308717094594
 30
0.0
 11
769.8400062545961
 21
620.6281889756983
 31
0.0
  0
LINE
  5
186
330
1F
100
AcDbEntity
  8
D-2
  6
Continuous
 62
     3
370
     9
100
AcDbLine
 10
729.8278921658978
 20
633.2042554273439
 30
0.0
 11
769.8400062545961
 21
599.6286208711481
 31
0.0
  0
LINE
  5
187
330
1F
100
AcDbEntity
  8
D-2
  6
Continuous
 62
     3
370
     9
100
AcDbLine
 10
729.8282502577758
 20
643.4583533023501
 30
0.0
 11
769.8400062545961
 21
609.8830192342016
 31
0.0
  0
LINE
  5
188
330
1F
100
AcDbEntity
  8
D-2
  6
Continuous
 62
     3
370
     9
100
AcDbLine
 10
729.8286083496539
 20
653.7124511773559
 30
0.0
 11
769.8400062545961
 21
620.1374175972549
 31
0.0
  0
LINE
  5
189
330
1F
100
AcDbEntity
  8
D-2
  6
Continuous
 62
     3
370
     9
100
AcDbLine
 10
729.828966441532
 20
663.9665490523621
 30
0.0
 11
769.8400062545961
 21
630.3918159603083
 31
0.0
  0
LINE
  5
18A
330
1F
100
AcDbEntity
  8
D-2
  6
Continuous
 62
     3
370
     9
100
AcDbLine
 10
729.8432147242961
 20
838.2793649668722
 30
0.0
 11
769.8400062545961
 21
804.716588132218
 31
0.0
  0
LINE
  5
18B
330
1F
100
AcDbEntity
  8
D-2
  6
Continuous
 62
     3
370
     9
100
AcDbLine
 10
659.828045449653
 20
622.9501575523377
 30
0.0
 11
694.7678649244257
 21
593.6308717094594
 31
0.0
  0
LINE
  5
18C
330
1F
100
AcDbEntity
  8
D-2
  6
Continuous
 62
     3
370
     9
100
AcDbLine
 10
659.827687357775
 20
612.6960596773315
 30
0.0
 11
682.5476891142933
 21
593.6308717094594
 31
0.0
  0
LINE
  5
18D
330
1F
100
AcDbEntity
  8
D-2
  6
Continuous
 62
     3
370
     9
100
AcDbLine
 10
659.8273292658969
 20
602.441961802326
 30
0.0
 11
670.3275133041616
 21
593.6308717094594
 31
0.0
  0
LINE
  5
18E
330
1F
100
AcDbEntity
  8
D-2
  6
Continuous
 62
     3
370
     9
100
AcDbLine
 10
692.1063591321133
 20
593.6308717094594
 30
0.0
 11
699.8405176302294
 21
600.1205941745561
 31
0.0
  0
LINE
  5
18F
330
1F
100
AcDbEntity
  8
D-2
  6
Continuous
 62
     3
370
     9
100
AcDbLine
 10
659.8387128136364
 20
802.3924713284689
 30
0.0
 11
699.8405176302294
 21
835.9579343876883
 31
0.0
  0
LINE
  5
190
330
1F
100
AcDbEntity
  8
D-2
  6
Continuous
 62
     3
370
     9
100
AcDbLine
 10
659.8352072872144
 20
828.0321150524592
 30
0.0
 11
699.8405176302294
 21
794.4621897691644
 31
0.0
  0
LINE
  5
191
330
1F
100
AcDbEntity
  8
D-2
  6
Continuous
 62
     3
370
     9
100
AcDbLine
 10
659.8383547217584
 20
792.1383734534627
 30
0.0
 11
699.8405176302294
 21
825.7041369871174
 31
0.0
  0
LINE
  5
192
330
1F
100
AcDbEntity
  8
D-2
  6
Continuous
 62
     3
370
     9
100
AcDbLine
 10
659.8348491953363
 20
817.7780171774532
 30
0.0
 11
699.8405176302294
 21
784.2077914061108
 31
0.0
  0
LINE
  5
193
330
1F
100
AcDbEntity
  8
D-2
  6
Continuous
 62
     3
370
     9
100
AcDbLine
 10
659.8379966298803
 20
781.8842755784567
 30
0.0
 11
699.8405176302294
 21
815.4503395865468
 31
0.0
  0
LINE
  5
194
330
1F
100
AcDbEntity
  8
D-2
  6
Continuous
 62
     3
370
     9
100
AcDbLine
 10
659.8344911034583
 20
807.5239193024472
 30
0.0
 11
699.8405176302294
 21
773.9533930430573
 31
0.0
  0
LINE
  5
195
330
1F
100
AcDbEntity
  8
D-2
  6
Continuous
 62
     3
370
     9
100
AcDbLine
 10
659.8376385380022
 20
771.6301777034507
 30
0.0
 11
699.8405176302294
 21
805.1965421859754
 31
0.0
  0
LINE
  5
196
330
1F
100
AcDbEntity
  8
D-2
  6
Continuous
 62
     3
370
     9
100
AcDbLine
 10
659.8341330115802
 20
797.269821427441
 30
0.0
 11
699.8405176302294
 21
763.698994680004
 31
0.0
  0
LINE
  5
197
330
1F
100
AcDbEntity
  8
D-2
  6
Continuous
 62
     3
370
     9
100
AcDbLine
 10
659.8372804461242
 20
761.3760798284445
 30
0.0
 11
699.8405176302294
 21
794.9427447854046
 31
0.0
  0
LINE
  5
198
330
1F
100
AcDbEntity
  8
D-2
  6
Continuous
 62
     3
370
     9
100
AcDbLine
 10
659.8337749197021
 20
787.0157235524348
 30
0.0
 11
699.8405176302294
 21
753.4445963169505
 31
0.0
  0
LINE
  5
199
330
1F
100
AcDbEntity
  8
D-2
  6
Continuous
 62
     3
370
     9
100
AcDbLine
 10
659.8369223542461
 20
751.1219819534383
 30
0.0
 11
699.8405176302294
 21
784.6889473848336
 31
0.0
  0
LINE
  5
19A
330
1F
100
AcDbEntity
  8
D-2
  6
Continuous
 62
     3
370
     9
100
AcDbLine
 10
659.8334168278241
 20
776.7616256774289
 30
0.0
 11
699.8405176302294
 21
743.1901979538969
 31
0.0
  0
LINE
  5
19B
330
1F
100
AcDbEntity
  8
D-2
  6
Continuous
 62
     3
370
     9
100
AcDbLine
 10
659.836564262368
 20
740.8678840784324
 30
0.0
 11
699.8405176302294
 21
774.4351499842626
 31
0.0
  0
LINE
  5
19C
330
1F
100
AcDbEntity
  8
D-2
  6
Continuous
 62
     3
370
     9
100
AcDbLine
 10
659.833058735946
 20
766.507527802423
 30
0.0
 11
699.8405176302294
 21
732.9357995908433
 31
0.0
  0
LINE
  5
19D
330
1F
100
AcDbEntity
  8
D-2
  6
Continuous
 62
     3
370
     9
100
AcDbLine
 10
659.83620617049
 20
730.6137862034266
 30
0.0
 11
699.8405176302294
 21
764.1813525836917
 31
0.0
  0
LINE
  5
19E
330
1F
100
AcDbEntity
  8
D-2
  6
Continuous
 62
     3
370
     9
100
AcDbLine
 10
659.8327006440679
 20
756.2534299274168
 30
0.0
 11
699.8405176302294
 21
722.6814012277898
 31
0.0
  0
LINE
  5
19F
330
1F
100
AcDbEntity
  8
D-2
  6
Continuous
 62
     3
370
     9
100
AcDbLine
 10
659.8358480786119
 20
720.3596883284204
 30
0.0
 11
699.8405176302294
 21
753.9275551831207
 31
0.0
  0
LINE
  5
1A0
330
1F
100
AcDbEntity
  8
D-2
  6
Continuous
 62
     3
370
     9
100
AcDbLine
 10
659.8323425521899
 20
745.9993320524106
 30
0.0
 11
699.8405176302294
 21
712.4270028647366
 31
0.0
  0
LINE
  5
1A1
330
1F
100
AcDbEntity
  8
D-2
  6
Continuous
 62
     3
370
     9
100
AcDbLine
 10
659.8354899867338
 20
710.1055904534142
 30
0.0
 11
699.8405176302294
 21
743.6737577825497
 31
0.0
  0
LINE
  5
1A2
330
1F
100
AcDbEntity
  8
D-2
  6
Continuous
 62
     3
370
     9
100
AcDbLine
 10
659.8319844603118
 20
735.7452341774047
 30
0.0
 11
699.8405176302294
 21
702.172604501683
 31
0.0
  0
LINE
  5
1A3
330
1F
100
AcDbEntity
  8
D-2
  6
Continuous
 62
     3
370
     9
100
AcDbLine
 10
659.8351318948557
 20
699.8514925784079
 30
0.0
 11
699.8405176302294
 21
733.4199603819789
 31
0.0
  0
LINE
  5
1A4
330
1F
100
AcDbEntity
  8
D-2
  6
Continuous
 62
     3
370
     9
100
AcDbLine
 10
659.8316263684337
 20
725.4911363023987
 30
0.0
 11
699.8405176302294
 21
691.9182061386298
 31
0.0
  0
LINE
  5
1A5
330
1F
100
AcDbEntity
  8
D-2
  6
Continuous
 62
     3
370
     9
100
AcDbLine
 10
659.8347738029777
 20
689.5973947034022
 30
0.0
 11
699.8405176302294
 21
723.1661629814075
 31
0.0
  0
LINE
  5
1A6
330
1F
100
AcDbEntity
  8
D-2
  6
Continuous
 62
     3
370
     9
100
AcDbLine
 10
659.8312682765556
 20
715.2370384273925
 30
0.0
 11
699.8405176302294
 21
681.6638077755758
 31
0.0
  0
LINE
  5
1A7
330
1F
100
AcDbEntity
  8
D-2
  6
Continuous
 62
     3
370
     9
100
AcDbLine
 10
659.8344157110996
 20
679.343296828396
 30
0.0
 11
699.8405176302294
 21
712.9123655808369
 31
0.0
  0
LINE
  5
1A8
330
1F
100
AcDbEntity
  8
D-2
  6
Continuous
 62
     3
370
     9
100
AcDbLine
 10
659.8309101846776
 20
704.9829405523863
 30
0.0
 11
699.8405176302294
 21
671.4094094125223
 31
0.0
  0
LINE
  5
1A9
330
1F
100
AcDbEntity
  8
D-2
  6
Continuous
 62
     3
370
     9
100
AcDbLine
 10
659.8340576192215
 20
669.0891989533898
 30
0.0
 11
699.8405176302294
 21
702.6585681802655
 31
0.0
  0
LINE
  5
1AA
330
1F
100
AcDbEntity
  8
D-2
  6
Continuous
 62
     3
370
     9
100
AcDbLine
 10
659.8305520927995
 20
694.72884267738
 30
0.0
 11
699.8405176302294
 21
661.1550110494691
 31
0.0
  0
LINE
  5
1AB
330
1F
100
AcDbEntity
  8
D-2
  6
Continuous
 62
     3
370
     9
100
AcDbLine
 10
659.8336995273435
 20
658.8351010783836
 30
0.0
 11
699.8405176302294
 21
692.4047707796947
 31
0.0
  0
LINE
  5
1AC
330
1F
100
AcDbEntity
  8
D-2
  6
Continuous
 62
     3
370
     9
100
AcDbLine
 10
659.8301940009214
 20
684.4747448023745
 30
0.0
 11
699.8405176302294
 21
650.9006126864156
 31
0.0
  0
LINE
  5
1AD
330
1F
100
AcDbEntity
  8
D-2
  6
Continuous
 62
     3
370
     9
100
AcDbLine
 10
659.8333414354654
 20
648.581003203378
 30
0.0
 11
699.8405176302294
 21
682.150973379124
 31
0.0
  0
LINE
  5
1AE
330
1F
100
AcDbEntity
  8
D-2
  6
Continuous
 62
     3
370
     9
100
AcDbLine
 10
659.8298359090434
 20
674.2206469273683
 30
0.0
 11
699.8405176302294
 21
640.6462143233623
 31
0.0
  0
LINE
  5
1AF
330
1F
100
AcDbEntity
  8
D-2
  6
Continuous
 62
     3
370
     9
100
AcDbLine
 10
659.8329833435873
 20
638.3269053283718
 30
0.0
 11
699.8405176302294
 21
671.8971759785527
 31
0.0
  0
LINE
  5
1B0
330
1F
100
AcDbEntity
  8
D-2
  6
Continuous
 62
     3
370
     9
100
AcDbLine
 10
659.8326252517093
 20
628.0728074533656
 30
0.0
 11
699.8405176302294
 21
661.6433785779818
 31
0.0
  0
LINE
  5
1B1
330
1F
100
AcDbEntity
  8
D-2
  6
Continuous
 62
     3
370
     9
100
AcDbLine
 10
659.8322671598312
 20
617.8187095783594
 30
0.0
 11
699.8405176302294
 21
651.3895811774112
 31
0.0
  0
LINE
  5
1B2
330
1F
100
AcDbEntity
  8
D-2
  6
Continuous
 62
     3
370
     9
100
AcDbLine
 10
659.8319090679531
 20
607.5646117033536
 30
0.0
 11
699.8405176302294
 21
641.1357837768398
 31
0.0
  0
LINE
  5
1B3
330
1F
100
AcDbEntity
  8
D-2
  6
Continuous
 62
     3
370
     9
100
AcDbLine
 10
659.831550976075
 20
597.3105138283474
 30
0.0
 11
699.8405176302294
 21
630.881986376269
 31
0.0
  0
LINE
  5
1B4
330
1F
100
AcDbEntity
  8
D-2
  6
Continuous
 62
     3
370
     9
100
AcDbLine
 10
679.8863459142752
 20
593.6308717094594
 30
0.0
 11
699.8405176302294
 21
610.374391575127
 31
0.0
  0
LINE
  5
1B5
330
1F
100
AcDbEntity
  8
D-2
  6
Continuous
 62
     3
370
     9
100
AcDbLine
 10
667.6663326964366
 20
593.6308717094594
 30
0.0
 11
699.8405176302294
 21
620.6281889756983
 31
0.0
  0
LINE
  5
1B6
330
1F
100
AcDbEntity
  8
D-2
  6
Continuous
 62
     3
370
     9
100
AcDbLine
 10
659.8284035415311
 20
633.2042554273439
 30
0.0
 11
699.8405176302294
 21
599.6286208711481
 31
0.0
  0
LINE
  5
1B7
330
1F
100
AcDbEntity
  8
D-2
  6
Continuous
 62
     3
370
     9
100
AcDbLine
 10
659.8287616334092
 20
643.4583533023501
 30
0.0
 11
699.8405176302294
 21
609.8830192342016
 31
0.0
  0
LINE
  5
1B8
330
1F
100
AcDbEntity
  8
D-2
  6
Continuous
 62
     3
370
     9
100
AcDbLine
 10
659.8291197252872
 20
653.7124511773559
 30
0.0
 11
699.8405176302294
 21
620.1374175972549
 31
0.0
  0
LINE
  5
1B9
330
1F
100
AcDbEntity
  8
D-2
  6
Continuous
 62
     3
370
     9
100
AcDbLine
 10
659.8294778171653
 20
663.9665490523621
 30
0.0
 11
699.8405176302294
 21
630.3918159603083
 31
0.0
  0
LINE
  5
1BA
330
1F
100
AcDbEntity
  8
D-2
  6
Continuous
 62
     3
370
     9
100
AcDbLine
 10
659.8437260999294
 20
838.2793649668722
 30
0.0
 11
699.8405176302294
 21
804.716588132218
 31
0.0
  0
LINE
  5
1BB
330
1F
100
AcDbEntity
  8
D-2
  6
Continuous
 62
     3
370
     9
100
AcDbLine
 10
589.8296785524816
 20
622.9501575523377
 30
0.0
 11
624.7694980272543
 21
593.6308717094594
 31
0.0
  0
LINE
  5
1BC
330
1F
100
AcDbEntity
  8
D-2
  6
Continuous
 62
     3
370
     9
100
AcDbLine
 10
589.8293204606035
 20
612.6960596773315
 30
0.0
 11
612.5493222171219
 21
593.6308717094594
 31
0.0
  0
LINE
  5
1BD
330
1F
100
AcDbEntity
  8
D-2
  6
Continuous
 62
     3
370
     9
100
AcDbLine
 10
589.8289623687255
 20
602.441961802326
 30
0.0
 11
600.3291464069902
 21
593.6308717094594
 31
0.0
  0
LINE
  5
1BE
330
1F
100
AcDbEntity
  8
D-2
  6
Continuous
 62
     3
370
     9
100
AcDbLine
 10
622.1079922349419
 20
593.6308717094594
 30
0.0
 11
629.842150733058
 21
600.1205941745561
 31
0.0
  0
LINE
  5
1BF
330
1F
100
AcDbEntity
  8
D-2
  6
Continuous
 62
     3
370
     9
100
AcDbLine
 10
589.840345916465
 20
802.3924713284689
 30
0.0
 11
629.842150733058
 21
835.9579343876883
 31
0.0
  0
LINE
  5
1C0
330
1F
100
AcDbEntity
  8
D-2
  6
Continuous
 62
     3
370
     9
100
AcDbLine
 10
589.836840390043
 20
828.0321150524592
 30
0.0
 11
629.842150733058
 21
794.4621897691644
 31
0.0
  0
LINE
  5
1C1
330
1F
100
AcDbEntity
  8
D-2
  6
Continuous
 62
     3
370
     9
100
AcDbLine
 10
589.839987824587
 20
792.1383734534627
 30
0.0
 11
629.842150733058
 21
825.7041369871174
 31
0.0
  0
LINE
  5
1C2
330
1F
100
AcDbEntity
  8
D-2
  6
Continuous
 62
     3
370
     9
100
AcDbLine
 10
589.8364822981649
 20
817.7780171774532
 30
0.0
 11
629.842150733058
 21
784.2077914061108
 31
0.0
  0
LINE
  5
1C3
330
1F
100
AcDbEntity
  8
D-2
  6
Continuous
 62
     3
370
     9
100
AcDbLine
 10
589.8396297327089
 20
781.8842755784567
 30
0.0
 11
629.842150733058
 21
815.4503395865468
 31
0.0
  0
LINE
  5
1C4
330
1F
100
AcDbEntity
  8
D-2
  6
Continuous
 62
     3
370
     9
100
AcDbLine
 10
589.8361242062869
 20
807.5239193024472
 30
0.0
 11
629.842150733058
 21
773.9533930430573
 31
0.0
  0
LINE
  5
1C5
330
1F
100
AcDbEntity
  8
D-2
  6
Continuous
 62
     3
370
     9
100
AcDbLine
 10
589.8392716408308
 20
771.6301777034507
 30
0.0
 11
629.842150733058
 21
805.1965421859754
 31
0.0
  0
LINE
  5
1C6
330
1F
100
AcDbEntity
  8
D-2
  6
Continuous
 62
     3
370
     9
100
AcDbLine
 10
589.8357661144088
 20
797.269821427441
 30
0.0
 11
629.842150733058
 21
763.698994680004
 31
0.0
  0
LINE
  5
1C7
330
1F
100
AcDbEntity
  8
D-2
  6
Continuous
 62
     3
370
     9
100
AcDbLine
 10
589.8389135489527
 20
761.3760798284445
 30
0.0
 11
629.842150733058
 21
794.9427447854046
 31
0.0
  0
LINE
  5
1C8
330
1F
100
AcDbEntity
  8
D-2
  6
Continuous
 62
     3
370
     9
100
AcDbLine
 10
589.8354080225307
 20
787.0157235524348
 30
0.0
 11
629.842150733058
 21
753.4445963169505
 31
0.0
  0
LINE
  5
1C9
330
1F
100
AcDbEntity
  8
D-2
  6
Continuous
 62
     3
370
     9
100
AcDbLine
 10
589.8385554570747
 20
751.1219819534383
 30
0.0
 11
629.842150733058
 21
784.6889473848336
 31
0.0
  0
LINE
  5
1CA
330
1F
100
AcDbEntity
  8
D-2
  6
Continuous
 62
     3
370
     9
100
AcDbLine
 10
589.8350499306526
 20
776.7616256774289
 30
0.0
 11
629.842150733058
 21
743.1901979538969
 31
0.0
  0
LINE
  5
1CB
330
1F
100
AcDbEntity
  8
D-2
  6
Continuous
 62
     3
370
     9
100
AcDbLine
 10
589.8381973651966
 20
740.8678840784324
 30
0.0
 11
629.842150733058
 21
774.4351499842626
 31
0.0
  0
LINE
  5
1CC
330
1F
100
AcDbEntity
  8
D-2
  6
Continuous
 62
     3
370
     9
100
AcDbLine
 10
589.8346918387746
 20
766.507527802423
 30
0.0
 11
629.842150733058
 21
732.9357995908433
 31
0.0
  0
LINE
  5
1CD
330
1F
100
AcDbEntity
  8
D-2
  6
Continuous
 62
     3
370
     9
100
AcDbLine
 10
589.8378392733185
 20
730.6137862034266
 30
0.0
 11
629.842150733058
 21
764.1813525836917
 31
0.0
  0
LINE
  5
1CE
330
1F
100
AcDbEntity
  8
D-2
  6
Continuous
 62
     3
370
     9
100
AcDbLine
 10
589.8343337468965
 20
756.2534299274168
 30
0.0
 11
629.842150733058
 21
722.6814012277898
 31
0.0
  0
LINE
  5
1CF
330
1F
100
AcDbEntity
  8
D-2
  6
Continuous
 62
     3
370
     9
100
AcDbLine
 10
589.8374811814405
 20
720.3596883284204
 30
0.0
 11
629.842150733058
 21
753.9275551831207
 31
0.0
  0
LINE
  5
1D0
330
1F
100
AcDbEntity
  8
D-2
  6
Continuous
 62
     3
370
     9
100
AcDbLine
 10
589.8339756550184
 20
745.9993320524106
 30
0.0
 11
629.842150733058
 21
712.4270028647366
 31
0.0
  0
LINE
  5
1D1
330
1F
100
AcDbEntity
  8
D-2
  6
Continuous
 62
     3
370
     9
100
AcDbLine
 10
589.8371230895624
 20
710.1055904534142
 30
0.0
 11
629.842150733058
 21
743.6737577825497
 31
0.0
  0
LINE
  5
1D2
330
1F
100
AcDbEntity
  8
D-2
  6
Continuous
 62
     3
370
     9
100
AcDbLine
 10
589.8336175631404
 20
735.7452341774047
 30
0.0
 11
629.842150733058
 21
702.172604501683
 31
0.0
  0
LINE
  5
1D3
330
1F
100
AcDbEntity
  8
D-2
  6
Continuous
 62
     3
370
     9
100
AcDbLine
 10
589.8367649976843
 20
699.8514925784079
 30
0.0
 11
629.842150733058
 21
733.4199603819789
 31
0.0
  0
LINE
  5
1D4
330
1F
100
AcDbEntity
  8
D-2
  6
Continuous
 62
     3
370
     9
100
AcDbLine
 10
589.8332594712623
 20
725.4911363023987
 30
0.0
 11
629.842150733058
 21
691.9182061386298
 31
0.0
  0
LINE
  5
1D5
330
1F
100
AcDbEntity
  8
D-2
  6
Continuous
 62
     3
370
     9
100
AcDbLine
 10
589.8364069058063
 20
689.5973947034022
 30
0.0
 11
629.842150733058
 21
723.1661629814075
 31
0.0
  0
LINE
  5
1D6
330
1F
100
AcDbEntity
  8
D-2
  6
Continuous
 62
     3
370
     9
100
AcDbLine
 10
589.8329013793842
 20
715.2370384273925
 30
0.0
 11
629.842150733058
 21
681.6638077755758
 31
0.0
  0
LINE
  5
1D7
330
1F
100
AcDbEntity
  8
D-2
  6
Continuous
 62
     3
370
     9
100
AcDbLine
 10
589.8360488139282
 20
679.343296828396
 30
0.0
 11
629.842150733058
 21
712.9123655808369
 31
0.0
  0
LINE
  5
1D8
330
1F
100
AcDbEntity
  8
D-2
  6
Continuous
 62
     3
370
     9
100
AcDbLine
 10
589.8325432875062
 20
704.9829405523863
 30
0.0
 11
629.842150733058
 21
671.4094094125223
 31
0.0
  0
LINE
  5
1D9
330
1F
100
AcDbEntity
  8
D-2
  6
Continuous
 62
     3
370
     9
100
AcDbLine
 10
589.8356907220501
 20
669.0891989533898
 30
0.0
 11
629.842150733058
 21
702.6585681802655
 31
0.0
  0
LINE
  5
1DA
330
1F
100
AcDbEntity
  8
D-2
  6
Continuous
 62
     3
370
     9
100
AcDbLine
 10
589.8321851956281
 20
694.72884267738
 30
0.0
 11
629.842150733058
 21
661.1550110494691
 31
0.0
  0
LINE
  5
1DB
330
1F
100
AcDbEntity
  8
D-2
  6
Continuous
 62
     3
370
     9
100
AcDbLine
 10
589.835332630172
 20
658.8351010783836
 30
0.0
 11
629.842150733058
 21
692.4047707796947
 31
0.0
  0
LINE
  5
1DC
330
1F
100
AcDbEntity
  8
D-2
  6
Continuous
 62
     3
370
     9
100
AcDbLine
 10
589.83182710375
 20
684.4747448023745
 30
0.0
 11
629.842150733058
 21
650.9006126864156
 31
0.0
  0
LINE
  5
1DD
330
1F
100
AcDbEntity
  8
D-2
  6
Continuous
 62
     3
370
     9
100
AcDbLine
 10
589.834974538294
 20
648.581003203378
 30
0.0
 11
629.842150733058
 21
682.150973379124
 31
0.0
  0
LINE
  5
1DE
330
1F
100
AcDbEntity
  8
D-2
  6
Continuous
 62
     3
370
     9
100
AcDbLine
 10
589.831469011872
 20
674.2206469273683
 30
0.0
 11
629.842150733058
 21
640.6462143233623
 31
0.0
  0
LINE
  5
1DF
330
1F
100
AcDbEntity
  8
D-2
  6
Continuous
 62
     3
370
     9
100
AcDbLine
 10
589.8346164464159
 20
638.3269053283718
 30
0.0
 11
629.842150733058
 21
671.8971759785527
 31
0.0
  0
LINE
  5
1E0
330
1F
100
AcDbEntity
  8
D-2
  6
Continuous
 62
     3
370
     9
100
AcDbLine
 10
589.8342583545378
 20
628.0728074533656
 30
0.0
 11
629.842150733058
 21
661.6433785779818
 31
0.0
  0
LINE
  5
1E1
330
1F
100
AcDbEntity
  8
D-2
  6
Continuous
 62
     3
370
     9
100
AcDbLine
 10
589.8339002626598
 20
617.8187095783594
 30
0.0
 11
629.842150733058
 21
651.3895811774112
 31
0.0
  0
LINE
  5
1E2
330
1F
100
AcDbEntity
  8
D-2
  6
Continuous
 62
     3
370
     9
100
AcDbLine
 10
589.8335421707817
 20
607.5646117033536
 30
0.0
 11
629.842150733058
 21
641.1357837768398
 31
0.0
  0
LINE
  5
1E3
330
1F
100
AcDbEntity
  8
D-2
  6
Continuous
 62
     3
370
     9
100
AcDbLine
 10
589.8331840789036
 20
597.3105138283474
 30
0.0
 11
629.842150733058
 21
630.881986376269
 31
0.0
  0
LINE
  5
1E4
330
1F
100
AcDbEntity
  8
D-2
  6
Continuous
 62
     3
370
     9
100
AcDbLine
 10
609.8879790171038
 20
593.6308717094594
 30
0.0
 11
629.842150733058
 21
610.374391575127
 31
0.0
  0
LINE
  5
1E5
330
1F
100
AcDbEntity
  8
D-2
  6
Continuous
 62
     3
370
     9
100
AcDbLine
 10
597.6679657992652
 20
593.6308717094594
 30
0.0
 11
629.842150733058
 21
620.6281889756983
 31
0.0
  0
LINE
  5
1E6
330
1F
100
AcDbEntity
  8
D-2
  6
Continuous
 62
     3
370
     9
100
AcDbLine
 10
589.8300366443597
 20
633.2042554273439
 30
0.0
 11
629.842150733058
 21
599.6286208711481
 31
0.0
  0
LINE
  5
1E7
330
1F
100
AcDbEntity
  8
D-2
  6
Continuous
 62
     3
370
     9
100
AcDbLine
 10
589.8303947362377
 20
643.4583533023501
 30
0.0
 11
629.842150733058
 21
609.8830192342016
 31
0.0
  0
LINE
  5
1E8
330
1F
100
AcDbEntity
  8
D-2
  6
Continuous
 62
     3
370
     9
100
AcDbLine
 10
589.8307528281158
 20
653.7124511773559
 30
0.0
 11
629.842150733058
 21
620.1374175972549
 31
0.0
  0
LINE
  5
1E9
330
1F
100
AcDbEntity
  8
D-2
  6
Continuous
 62
     3
370
     9
100
AcDbLine
 10
589.8311109199939
 20
663.9665490523621
 30
0.0
 11
629.842150733058
 21
630.3918159603083
 31
0.0
  0
LINE
  5
1EA
330
1F
100
AcDbEntity
  8
D-2
  6
Continuous
 62
     3
370
     9
100
AcDbLine
 10
589.845359202758
 20
838.2793649668722
 30
0.0
 11
629.842150733058
 21
804.716588132218
 31
0.0
  0
LINE
  5
1EB
330
1F
100
AcDbEntity
  8
D-2
  6
Continuous
 62
     3
370
     9
100
AcDbLine
 10
669.7473349939846
 20
858.6318499215586
 30
0.0
 11
669.7473349939846
 21
843.6309954293708
 31
0.0
  0
LINE
  5
1EC
330
1F
100
AcDbEntity
  8
D-2
  6
Continuous
 62
     3
370
     9
100
AcDbLine
 10
669.7473349939846
 20
858.6318499215586
 30
0.0
 11
689.7376140610003
 21
828.6470794692599
 31
0.0
  0
LINE
  5
1ED
330
1F
100
AcDbEntity
  8
D-2
  6
Continuous
 62
     3
370
     9
100
AcDbLine
 10
799.8408475499918
 20
843.6309954293708
 30
0.0
 11
689.7484183680083
 21
843.6309954293708
 31
0.0
  0
LINE
  5
1EE
330
1F
100
AcDbEntity
  8
D-2
  6
Continuous
 62
     3
370
     9
100
AcDbLine
 10
669.7473349939846
 20
843.6309954293708
 30
0.0
 11
559.8864177173284
 21
843.6309954293708
 31
0.0
  0
LINE
  5
1EF
330
1F
100
AcDbEntity
  8
D-2
  6
Continuous
 62
     3
370
     9
100
AcDbLine
 10
689.7484183680083
 20
843.6309954293708
 30
0.0
 11
689.7484183680083
 21
828.6470794692599
 31
0.0
  0
LINE
  5
1F0
330
1F
100
AcDbEntity
  8
D-A
  6
Continuous
 62
     3
370
     9
100
AcDbLine
 10
769.8400062545961
 20
593.6308717094594
 30
0.0
 11
769.8400062545961
 21
843.6309954293708
 31
0.0
  0
LINE
  5
1F1
330
1F
100
AcDbEntity
  8
D-2
  6
Continuous
 62
     3
370
     9
100
AcDbLine
 10
729.8385595298812
 20
812.6465692034751
 30
0.0
 11
766.7644010728886
 21
843.6309954293708
 31
0.0
  0
LINE
  5
1F2
330
1F
100
AcDbEntity
  8
D-2
  6
Continuous
 62
     3
370
     9
100
AcDbLine
 10
760.1261992889671
 20
843.6309954293708
 30
0.0
 11
769.8400062545961
 21
835.4797832213783
 31
0.0
  0
LINE
  5
1F3
330
1F
100
AcDbEntity
  8
D-2
  6
Continuous
 62
     3
370
     9
100
AcDbLine
 10
729.8389176217593
 20
822.900667078481
 30
0.0
 11
754.5443878550503
 21
843.6309954293708
 31
0.0
  0
LINE
  5
1F4
330
1F
100
AcDbEntity
  8
D-2
  6
Continuous
 62
     3
370
     9
100
AcDbLine
 10
747.9060234788352
 20
843.6309954293708
 30
0.0
 11
769.8400062545961
 21
825.2253848583248
 31
0.0
  0
LINE
  5
1F5
330
1F
100
AcDbEntity
  8
D-2
  6
Continuous
 62
     3
370
     9
100
AcDbLine
 10
729.8392757136373
 20
833.1547649534868
 30
0.0
 11
742.3243746372121
 21
843.6309954293708
 31
0.0
  0
LINE
  5
1F6
330
1F
100
AcDbEntity
  8
D-2
  6
Continuous
 62
     3
370
     9
100
AcDbLine
 10
735.6858476687033
 20
843.6309954293708
 30
0.0
 11
769.8400062545961
 21
814.9709864952715
 31
0.0
  0
LINE
  5
1F7
330
1F
100
AcDbEntity
  8
D-A
  6
Continuous
 62
     3
370
     9
100
AcDbLine
 10
729.8432147242961
 20
593.6308717094594
 30
0.0
 11
729.8432147242961
 21
843.6309954293708
 31
0.0
  0
LINE
  5
1F8
330
1F
100
AcDbEntity
  8
D-2
  6
Continuous
 62
     3
370
     9
100
AcDbLine
 10
729.8396338055153
 20
843.4088628284928
 30
0.0
 11
730.1043614193737
 21
843.6309954293708
 31
0.0
  0
LINE
  5
1F9
330
1F
100
AcDbEntity
  8
D-A
  6
Continuous
 62
     3
370
     9
100
AcDbLine
 10
629.8453592027574
 20
593.6308717094594
 30
0.0
 11
629.8453592027574
 21
843.6309954293708
 31
0.0
  0
LINE
  5
1FA
330
1F
100
AcDbEntity
  8
D-2
  6
Continuous
 62
     3
370
     9
100
AcDbLine
 10
589.8407040083431
 20
812.6465692034751
 30
0.0
 11
626.7665455513505
 21
843.6309954293708
 31
0.0
  0
LINE
  5
1FB
330
1F
100
AcDbEntity
  8
D-2
  6
Continuous
 62
     3
370
     9
100
AcDbLine
 10
620.128343767429
 20
843.6309954293708
 30
0.0
 11
629.842150733058
 21
835.4797832213783
 31
0.0
  0
LINE
  5
1FC
330
1F
100
AcDbEntity
  8
D-2
  6
Continuous
 62
     3
370
     9
100
AcDbLine
 10
589.8410621002212
 20
822.900667078481
 30
0.0
 11
614.5465323335122
 21
843.6309954293708
 31
0.0
  0
LINE
  5
1FD
330
1F
100
AcDbEntity
  8
D-2
  6
Continuous
 62
     3
370
     9
100
AcDbLine
 10
607.9081679572971
 20
843.6309954293708
 30
0.0
 11
629.842150733058
 21
825.2253848583248
 31
0.0
  0
LINE
  5
1FE
330
1F
100
AcDbEntity
  8
D-2
  6
Continuous
 62
     3
370
     9
100
AcDbLine
 10
589.8414201920992
 20
833.1547649534868
 30
0.0
 11
602.3265191156739
 21
843.6309954293708
 31
0.0
  0
LINE
  5
1FF
330
1F
100
AcDbEntity
  8
D-2
  6
Continuous
 62
     3
370
     9
100
AcDbLine
 10
595.6879921471652
 20
843.6309954293708
 30
0.0
 11
629.842150733058
 21
814.9709864952715
 31
0.0
  0
LINE
  5
200
330
1F
100
AcDbEntity
  8
D-2
  6
Continuous
 62
     3
370
     9
100
AcDbLine
 10
589.8417782839772
 20
843.4088628284928
 30
0.0
 11
590.1065058978356
 21
843.6309954293708
 31
0.0
  0
LINE
  5
201
330
1F
100
AcDbEntity
  8
D-A
  6
Continuous
 62
     3
370
     9
100
AcDbLine
 10
589.845359202758
 20
593.6308717094594
 30
0.0
 11
589.845359202758
 21
843.6309954293708
 31
0.0
  0
LINE
  5
202
330
1F
100
AcDbEntity
  8
D-A
  6
Continuous
 62
     3
370
     9
100
AcDbLine
 10
699.8429920284555
 20
593.6308717094594
 30
0.0
 11
699.8429920284555
 21
843.6309954293708
 31
0.0
  0
LINE
  5
203
330
1F
100
AcDbEntity
  8
D-2
  6
Continuous
 62
     3
370
     9
100
AcDbLine
 10
690.1267106646004
 20
843.6309954293708
 30
0.0
 11
699.8405176302294
 21
835.4797832213783
 31
0.0
  0
LINE
  5
204
330
1F
100
AcDbEntity
  8
D-2
  6
Continuous
 62
     3
370
     9
100
AcDbLine
 10
665.6863590443367
 20
843.6309954293708
 30
0.0
 11
699.8405176302294
 21
814.9709864952715
 31
0.0
  0
LINE
  5
205
330
1F
100
AcDbEntity
  8
D-2
  6
Continuous
 62
     3
370
     9
100
AcDbLine
 10
659.8401451811486
 20
843.4088628284928
 30
0.0
 11
660.104872795007
 21
843.6309954293708
 31
0.0
  0
LINE
  5
206
330
1F
100
AcDbEntity
  8
D-A
  6
Continuous
 62
     3
370
     9
100
AcDbLine
 10
659.8437260999294
 20
593.6308717094594
 30
0.0
 11
659.8437260999294
 21
843.6309954293708
 31
0.0
  0
LINE
  5
207
330
1F
100
AcDbEntity
  8
D-2
  6
Continuous
 62
     3
370
     9
100
AcDbLine
 10
689.7484183680083
 20
833.6940360268693
 30
0.0
 11
699.8405176302294
 21
825.2253848583248
 31
0.0
  0
LINE
  5
208
330
1F
100
AcDbEntity
  8
D-2
  6
Continuous
 62
     3
370
     9
100
AcDbLine
 10
689.7484183680083
 20
837.743464255602
 30
0.0
 11
696.7649124485218
 21
843.6309954293708
 31
0.0
  0
LINE
  5
209
330
1F
100
AcDbEntity
  8
D-2
  6
Continuous
 62
     3
370
     9
100
AcDbLine
 10
659.8390709055145
 20
812.6465692034751
 30
0.0
 11
685.8525942417383
 21
834.4744832334934
 31
0.0
  0
LINE
  5
20A
330
1F
100
AcDbEntity
  8
D-2
  6
Continuous
 62
     3
370
     9
100
AcDbLine
 10
659.8394289973926
 20
822.900667078481
 30
0.0
 11
681.4688803504257
 21
841.0499119365596
 31
0.0
  0
LINE
  5
20B
330
1F
100
AcDbEntity
  8
D-2
  6
Continuous
 62
     3
370
     9
100
AcDbLine
 10
659.8397870892707
 20
833.1547649534868
 30
0.0
 11
677.085166459113
 21
847.6253406396262
 31
0.0
  0
LINE
  5
20C
330
1F
100
AcDbEntity
  8
D-2
  6
Continuous
 62
     3
370
     9
100
AcDbLine
 10
669.7473349939846
 20
850.4776797155168
 30
0.0
 11
682.08660492791
 21
840.1233450989224
 31
0.0
  0
SOLID
  5
20D
330
1F
100
AcDbEntity
  8
D-5
  6
Continuous
 62
     4
370
     9
100
AcDbTrace
 10
646.7437623911037
 20
562.984684561374
 30
0.0
 11
646.7437623911037
 21
522.9846845613739
 31
0.0
 12
642.7437623911039
 22
562.984684561374
 32
0.0
 13
642.7437623911039
 23
522.9846845613739
 33
0.0
  0
LINE
  5
20E
330
1F
100
AcDbEntity
  8
D-5
  6
Continuous
 62
     4
370
     9
100
AcDbLine
 10
654.4098521888158
 20
542.0036876879003
 30
0.0
 11
703.6592448717574
 21
542.0036876879003
 31
0.0
  0
LINE
  5
20F
330
1F
100
AcDbEntity
  8
D-5
  6
Continuous
 62
     4
370
     9
100
AcDbLine
 10
654.4098521888158
 20
542.0036876879003
 30
0.0
 11
679.1959737231612
 21
545.2668424934017
 31
0.0
  0
LINE
  5
210
330
1F
100
AcDbEntity
  8
D-5
  6
Continuous
 62
     4
370
     9
100
AcDbLine
 10
654.4098521888158
 20
542.0036876879003
 30
0.0
 11
679.1959737231612
 21
538.7405328823988
 31
0.0
  0
LINE
  5
211
330
1F
100
AcDbEntity
  8
D-5
  6
JWW_CENTER1
 62
     4
370
     9
100
AcDbLine
 10
644.7437623911038
 20
562.984684561374
 30
0.0
 11
644.7437623911038
 21
643.7881332881158
 31
0.0
  0
TEXT
  5
212
330
1F
100
AcDbEntity
  8
D-5
  6
Continuous
 62
     2
370
     9
100
AcDbText
 10
711.3700160057077
 20
529.7985056676965
 30
0.0
 40
30.48
  1
C
 41
0.9999999999999998
  7
ＭＳ ゴシック
100
AcDbText
  0
LINE
  5
213
330
1F
100
AcDbEntity
  8
D-5
  6
JWW_CENTER1
 62
     4
370
     9
100
AcDbLine
 10
508.5469365503603
 20
653.7564895664079
 30
0.0
 11
545.6636400517418
 21
653.7564895664079
 31
0.0
  0
SOLID
  5
214
330
1F
100
AcDbEntity
  8
D-5
  6
Continuous
 62
     4
370
     9
100
AcDbTrace
 10
508.5469365503603
 20
651.7564895664079
 30
0.0
 11
468.5469365503603
 21
651.7564895664079
 31
0.0
 12
508.5469365503603
 22
655.7564895664077
 32
0.0
 13
468.5469365503603
 23
655.7564895664077
 33
0.0
  0
LINE
  5
215
330
1F
100
AcDbEntity
  8
D-5
  6
Continuous
 62
     4
370
     9
100
AcDbLine
 10
487.5659396768866
 20
644.090399768696
 30
0.0
 11
487.5659396768866
 21
594.841007085754
 31
0.0
  0
LINE
  5
216
330
1F
100
AcDbEntity
  8
D-5
  6
Continuous
 62
     4
370
     9
100
AcDbLine
 10
487.5659396768866
 20
644.090399768696
 30
0.0
 11
490.829094482388
 21
619.3042782343505
 31
0.0
  0
LINE
  5
217
330
1F
100
AcDbEntity
  8
D-5
  6
Continuous
 62
     4
370
     9
100
AcDbLine
 10
487.5659396768866
 20
644.090399768696
 30
0.0
 11
484.3027848713853
 21
619.3042782343505
 31
0.0
  0
TEXT
  5
218
330
1F
100
AcDbEntity
  8
D-5
  6
Continuous
 62
     2
370
     9
100
AcDbText
 10
477.5659396768866
 20
554.5149072483417
 30
0.0
 40
30.48
  1
B
 41
0.9999999999999998
  7
ＭＳ ゴシック
100
AcDbText
  0
LINE
  5
219
330
1F
100
AcDbEntity
  8
D-5
  6
JWW_CENTER1
 62
     4
370
     9
100
AcDbLine
 10
856.9774761948152
 20
653.7564895664079
 30
0.0
 11
819.8607726934342
 21
653.7564895664079
 31
0.0
  0
SOLID
  5
21A
330
1F
100
AcDbEntity
  8
D-5
  6
Continuous
 62
     4
370
     9
100
AcDbTrace
 10
856.9774761948152
 20
655.7564895664077
 30
0.0
 11
896.9774761948152
 21
655.7564895664077
 31
0.0
 12
856.9774761948152
 22
651.7564895664079
 32
0.0
 13
896.9774761948152
 23
651.7564895664079
 33
0.0
  0
LINE
  5
21B
330
1F
100
AcDbEntity
  8
D-5
  6
Continuous
 62
     4
370
     9
100
AcDbLine
 10
875.0216220180347
 20
647.0991717272972
 30
0.0
 11
875.0216220180347
 21
597.8497790443553
 31
0.0
  0
LINE
  5
21C
330
1F
100
AcDbEntity
  8
D-5
  6
Continuous
 62
     4
370
     9
100
AcDbLine
 10
875.0216220180347
 20
647.0991717272972
 30
0.0
 11
878.2847768235366
 21
622.313050192952
 31
0.0
  0
LINE
  5
21D
330
1F
100
AcDbEntity
  8
D-5
  6
Continuous
 62
     4
370
     9
100
AcDbLine
 10
875.0216220180347
 20
647.0991717272972
 30
0.0
 11
871.7584672125339
 21
622.313050192952
 31
0.0
  0
TEXT
  5
21E
330
1F
100
AcDbEntity
  8
D-5
  6
Continuous
 62
     2
370
     9
100
AcDbText
 10
865.0216220180347
 20
556.8044719930543
 30
0.0
 40
30.48
  1
B
 41
0.9999999999999998
  7
ＭＳ ゴシック
100
AcDbText
  0
LINE
  5
21F
330
1F
100
AcDbEntity
  8
D-4
  6
Continuous
 62
     7
370
     9
100
AcDbLine
 10
609.8453592027578
 20
1087.549375871552
 30
0.0
 11
679.2453836168203
 21
1087.549375871552
 31
0.0
  0
LWPOLYLINE
  5
220
330
1F
100
AcDbEntity
  8
D-4
  6
Continuous
 62
     7
370
     9
100
AcDbPolyline
 90
        4
 70
     1
 43
1.0
 10
610.3453592027577
 20
1087.549375871552
 42
0.4142135623731
 10
609.8453592027578
 20
1088.049375871552
 42
0.4142135623731
 10
609.3453592027578
 20
1087.549375871552
 42
0.4142135623731
 10
609.8453592027578
 20
1087.049375871552
 42
0.4142135623731
  0
LWPOLYLINE
  5
221
330
1F
100
AcDbEntity
  8
D-4
  6
Continuous
 62
     7
370
     9
100
AcDbPolyline
 90
        4
 70
     1
 43
1.0
 10
679.7453836168202
 20
1087.549375871552
 42
0.4142135623731
 10
679.2453836168203
 20
1088.049375871552
 42
0.4142135623731
 10
678.7453836168203
 20
1087.549375871552
 42
0.4142135623731
 10
679.2453836168203
 20
1087.049375871552
 42
0.4142135623731
  0
LINE
  5
222
330
1F
100
AcDbEntity
  8
D-4
  6
Continuous
 62
     7
370
     9
100
AcDbLine
 10
609.8453592027578
 20
1090.549375871552
 30
0.0
 11
609.8453592027578
 21
1038.631193381229
 31
0.0
  0
LINE
  5
223
330
1F
100
AcDbEntity
  8
D-4
  6
Continuous
 62
     7
370
     9
100
AcDbLine
 10
679.2453836168203
 20
1090.549375871552
 30
0.0
 11
679.2453836168203
 21
1038.631193381229
 31
0.0
  0
LINE
  5
224
330
1F
100
AcDbEntity
  8
D-4
  6
Continuous
 62
     7
370
     9
100
AcDbLine
 10
679.2453836168203
 20
1087.549375871552
 30
0.0
 11
748.895713206664
 21
1087.549375871552
 31
0.0
  0
LWPOLYLINE
  5
225
330
1F
100
AcDbEntity
  8
D-4
  6
Continuous
 62
     7
370
     9
100
AcDbPolyline
 90
        4
 70
     1
 43
1.0
 10
749.395713206664
 20
1087.549375871552
 42
0.4142135623731
 10
748.895713206664
 20
1088.049375871552
 42
0.4142135623731
 10
748.3957132066641
 20
1087.549375871552
 42
0.4142135623731
 10
748.895713206664
 20
1087.049375871552
 42
0.4142135623731
  0
LINE
  5
226
330
1F
100
AcDbEntity
  8
D-4
  6
Continuous
 62
     7
370
     9
100
AcDbLine
 10
748.895713206664
 20
1090.549375871552
 30
0.0
 11
748.895713206664
 21
1038.631193381229
 31
0.0
  0
TEXT
  5
227
330
1F
100
AcDbEntity
  8
D-4
  6
Continuous
 62
     2
370
   211
100
AcDbText
 10
692.8205484117423
 20
1099.189375871552
 30
0.0
 40
30.48
  1
14
 41
1.0625
  7
ＭＳ ゴシック
100
AcDbText
  0
TEXT
  5
228
330
1F
100
AcDbEntity
  8
D-4
  6
Continuous
 62
     2
370
   211
100
AcDbText
 10
623.295371409789
 20
1099.189375871552
 30
0.0
 40
30.48
  1
14
 41
1.0625
  7
ＭＳ ゴシック
100
AcDbText
  0
TEXT
  5
229
330
1F
100
AcDbEntity
  8
D-5
  6
Continuous
 62
     2
370
     9
100
AcDbText
 10
-1241.511531818431
 20
-1043.436905219343
 30
0.0
 40
30.48
  1
A断面詳細図　Ｓ＝１：２
 50
359.9999375525338
 41
1.114130434782609
  7
ＭＳ ゴシック
100
AcDbText
  0
LINE
  5
22A
330
1F
100
AcDbEntity
  8
D-5
  6
Continuous
 62
     7
370
     9
100
AcDbLine
 10
-727.8818132734041
 20
-1061.576600043558
 30
0.0
 11
-1252.1459642168
 21
-1061.576600043558
 31
0.0
  0
TEXT
  5
22B
330
1F
100
AcDbEntity
  8
D-5
  6
Continuous
 62
     2
370
     9
100
AcDbText
 10
92.24397205096793
 20
-765.3841721052916
 30
0.0
 40
30.48
  1
　　　サイドバー　ＳＵＳ３０４
 41
1.116666666666667
  7
ＭＳ ゴシック
100
AcDbText
  0
LINE
  5
22C
330
1F
100
AcDbEntity
  8
D-5
  6
Continuous
 62
     2
370
     9
100
AcDbLine
 10
155.4419853566321
 20
-453.1040845293791
 30
0.0
 11
-69.55778576153193
 21
-453.1040845293791
 31
0.0
  0
LINE
  5
22D
330
1F
100
AcDbEntity
  8
D-5
  6
Continuous
 62
     2
370
     9
100
AcDbLine
 10
155.4419853566321
 20
-403.1039212126524
 30
0.0
 11
155.4419853566321
 21
-453.1040845293791
 31
0.0
  0
LINE
  5
22E
330
1F
100
AcDbEntity
  8
D-5
  6
Continuous
 62
     2
370
     9
100
AcDbLine
 10
-69.55778576153193
 20
-403.1039212126524
 30
0.0
 11
155.4419853566321
 21
-403.1039212126524
 31
0.0
  0
LINE
  5
22F
330
1F
100
AcDbEntity
  8
D-5
  6
Continuous
 62
     2
370
     9
100
AcDbLine
 10
-69.55778576153193
 20
-453.1040845293791
 30
0.0
 11
-69.55778576153193
 21
-403.1039212126524
 31
0.0
  0
TEXT
  5
230
330
1F
100
AcDbEntity
  8
D-5
  6
Continuous
 62
     2
370
     9
100
AcDbText
 10
-22.05824352520381
 20
-442.4638198847563
 30
0.0
 40
30.48
  1
仕　様
 41
1.083333333333333
  7
ＭＳ ゴシック
100
AcDbText
  0
TEXT
  5
231
330
1F
100
AcDbEntity
  8
D-5
  6
Continuous
 62
     2
370
     9
100
AcDbText
 10
92.24397205096793
 20
-635.3842293257505
 30
0.0
 40
30.48
  1
材質：メインバー　ＳＵＳ３０４　＠１４
 41
1.118421052631579
  7
ＭＳ ゴシック
100
AcDbText
  0
TEXT
  5
232
330
1F
100
AcDbEntity
  8
D-5
  6
Continuous
 62
     2
370
     9
100
AcDbText
 10
92.24397205096793
 20
-700.3839622969418
 30
0.0
 40
30.48
  1
　　　クロスバー　ＳＵＳ３０４　＠１００
 41
1.11875
  7
ＭＳ ゴシック
100
AcDbText
  0
TEXT
  5
233
330
1F
100
AcDbEntity
  8
D-5
  6
Continuous
 62
     2
370
     9
100
AcDbText
 10
32.53205798846793
 20
-505.3843008513243
 30
0.0
 40
30.48
  1
ステンレス製　細目ノンスリップタイプ（ローレット模様）
 41
1.12037037037037
  7
ＭＳ ゴシック
100
AcDbText
  0
TEXT
  5
234
330
1F
100
AcDbEntity
  8
D-5
  6
Continuous
 62
     2
370
     9
100
AcDbText
 10
32.53205798846793
 20
-570.3842674727233
 30
0.0
 40
30.48
  1
グレーチング（すきま６mm）　ＺＱ－Ｈ－２０　５００×５００×２０
 41
1.12109375
  7
ＭＳ ゴシック
100
AcDbText
  0
TEXT
  5
235
330
1F
100
AcDbEntity
  8
D-5
  6
Continuous
 62
     2
370
     9
100
AcDbText
 10
32.53205798846793
 20
-833.7975555914628
 30
0.0
 40
30.48
  1
ステンレス製受枠　ＲＬ－２０（四方枠）
 41
1.118421052631579
  7
ＭＳ ゴシック
100
AcDbText
  0
TEXT
  5
236
330
1F
100
AcDbEntity
  8
D-5
  6
Continuous
 62
     2
370
     9
100
AcDbText
 10
92.24397205096793
 20
-888.7985474127519
 30
0.0
 40
30.48
  1
材質：ステンレス鋼板ｔ＝３．０（ＳＵＳ３０４）
 41
1.119565217391304
  7
ＭＳ ゴシック
100
AcDbText
  0
TEXT
  5
237
330
1F
100
AcDbEntity
  8
D-5
  6
Continuous
 62
     2
370
     9
100
AcDbText
 10
92.24397205096793
 20
-998.7976318854081
 30
0.0
 40
30.48
  1
施工場所の状況に合わせて、アンカーをプライヤー等で折り曲げてご使用ください。
 41
1.121710526315789
  7
ＭＳ ゴシック
100
AcDbText
  0
TEXT
  5
238
330
1F
100
AcDbEntity
  8
F-4ﾚｲﾔ
  6
Continuous
 62
     2
370
     9
100
AcDbText
 10
-844.9540617337937
 20
-1370.93982645808
 30
0.0
 40
30.48
  1
ＺＱ－Ｈ－２０　５００×５００×２０　ステンレス製受枠ＲＬ－２０（四方枠）
 41
0.7743243243243242
  7
ＭＳ ゴシック
100
AcDbText
  0
LINE
  5
239
330
1F
100
AcDbEntity
  8
D-2
  6
Continuous
 62
     3
370
     9
100
AcDbLine
 10
-936.2676280630984
 20
-356.8587444634497
 30
0.0
 11
-936.2676280630984
 21
-456.8589919032721
 31
0.0
  0
LINE
  5
23A
330
1F
100
AcDbEntity
  8
D-2
  6
Continuous
 62
     3
370
     9
100
AcDbLine
 10
-936.2676280630984
 20
-456.8589919032721
 30
0.0
 11
-951.267677551063
 21
-456.8589919032721
 31
0.0
  0
LINE
  5
23B
330
1F
100
AcDbEntity
  8
D-2
  6
Continuous
 62
     3
370
     9
100
AcDbLine
 10
-951.267677551063
 20
-356.8587444634497
 30
0.0
 11
-936.2676280630984
 21
-356.8587444634497
 31
0.0
  0
LINE
  5
23C
330
1F
100
AcDbEntity
  8
D-2
  6
Continuous
 62
     3
370
     9
100
AcDbLine
 10
-951.267677551063
 20
-356.8587444634497
 30
0.0
 11
-951.267677551063
 21
-456.8589919032721
 31
0.0
  0
TEXT
  5
23D
330
1F
100
AcDbEntity
  8
D-4
  6
Continuous
 62
     2
370
     9
100
AcDbText
 10
-1634.803424682211
 20
-218.8094786683149
 30
0.0
 40
30.48
  1
□450
 41
1.1
  7
ＭＳ ゴシック
100
AcDbText
  0
TEXT
  5
23E
330
1F
100
AcDbEntity
  8
D-4
  6
Continuous
 62
     2
370
     9
100
AcDbText
 10
-1634.803424682211
 20
-110.0573259418581
 30
0.0
 40
30.48
  1
  500
 41
1.1
  7
ＭＳ ゴシック
100
AcDbText
  0
LINE
  5
23F
330
1F
100
AcDbEntity
  8
D-2
  6
Continuous
 62
     3
370
     9
100
AcDbLine
 10
-951.267677551063
 20
-356.8587444634497
 30
0.0
 11
-1633.93524586095
 21
-356.8587444634497
 31
0.0
  0
LINE
  5
240
330
1F
100
AcDbEntity
  8
D-2
  6
Continuous
 62
     3
370
     9
100
AcDbLine
 10
-951.267677551063
 20
-456.8589919032721
 30
0.0
 11
-1633.93524586095
 21
-456.8589919032721
 31
0.0
  0
LINE
  5
241
330
1F
100
AcDbEntity
  8
D-2
  6
Continuous
 62
     3
370
     9
100
AcDbLine
 10
-1633.93524586095
 20
-363.8588170457976
 30
0.0
 11
-951.267677551063
 21
-363.8588170457976
 31
0.0
  0
LINE
  5
242
330
1F
100
AcDbEntity
  8
D-4
  6
Continuous
 62
     7
370
     9
100
AcDbLine
 10
-1530.708625549897
 20
-356.8587444634497
 30
0.0
 11
-1530.708625549897
 21
-456.8589919032721
 31
0.0
  0
LWPOLYLINE
  5
243
330
1F
100
AcDbEntity
  8
D-4
  6
Continuous
 62
     7
370
     9
100
AcDbPolyline
 90
        4
 70
     1
 43
1.0
 10
-1530.208625549897
 20
-356.8587444634497
 42
0.4142135623731
 10
-1530.708625549897
 20
-356.3587444634497
 42
0.4142135623731
 10
-1531.208625549897
 20
-356.8587444634497
 42
0.4142135623731
 10
-1530.708625549897
 20
-357.3587444634496
 42
0.4142135623731
  0
LWPOLYLINE
  5
244
330
1F
100
AcDbEntity
  8
D-4
  6
Continuous
 62
     7
370
     9
100
AcDbPolyline
 90
        4
 70
     1
 43
1.0
 10
-1530.208625549897
 20
-456.8589919032721
 42
0.4142135623731
 10
-1530.708625549897
 20
-456.3589919032721
 42
0.4142135623731
 10
-1531.208625549897
 20
-456.8589919032721
 42
0.4142135623731
 10
-1530.708625549897
 20
-457.358991903272
 42
0.4142135623731
  0
TEXT
  5
245
330
1F
100
AcDbEntity
  8
D-4
  6
Continuous
 62
     2
370
   211
100
AcDbText
 10
-1542.348625549897
 20
-428.1088681833609
 30
0.0
 40
30.48
  1
20
 50
90.0
 41
1.0625
  7
ＭＳ ゴシック
100
AcDbText
  0
LINE
  5
246
330
1F
100
AcDbEntity
  8
D-2
  6
Continuous
 62
     3
370
     9
100
AcDbLine
 10
-1653.935044444935
 20
-421.9215016844675
 30
0.0
 11
-1613.934861339466
 21
-391.9208608153269
 31
0.0
  0
LINE
  5
247
330
1F
100
AcDbEntity
  8
D-2
  6
Continuous
 62
     3
370
     9
100
AcDbLine
 10
-1653.935044444935
 20
-421.9215016844675
 30
0.0
 11
-1633.93544117345
 21
-421.9215016844675
 31
0.0
  0
LINE
  5
248
330
1F
100
AcDbEntity
  8
D-2
  6
Continuous
 62
     3
370
     9
100
AcDbLine
 10
-1633.93544117345
 20
-391.9208608153269
 30
0.0
 11
-1613.934861339466
 21
-391.9208608153269
 31
0.0
  0
LINE
  5
249
330
1F
100
AcDbEntity
  8
D-2
  6
Continuous
 62
     3
370
     9
100
AcDbLine
 10
-1633.93544117345
 20
-391.9208608153269
 30
0.0
 11
-1633.93544117345
 21
-327.864635997537
 31
0.0
  0
LINE
  5
24A
330
1F
100
AcDbEntity
  8
D-2
  6
Continuous
 62
     3
370
     9
100
AcDbLine
 10
-1633.93544117345
 20
-485.3545958368944
 30
0.0
 11
-1633.93544117345
 21
-421.9215016844675
 31
0.0
  0
LINE
  5
24B
330
1F
100
AcDbEntity
  8
D-2
  6
Continuous
 62
     3
370
     9
100
AcDbLine
 10
-1418.389076487294
 20
-409.8590626003644
 30
0.0
 11
-1436.067043455728
 21
-427.5362872493298
 31
0.0
  0
LINE
  5
24C
330
1F
100
AcDbEntity
  8
D-2
  6
Continuous
 62
     3
370
     9
100
AcDbLine
 10
-1436.066672295993
 20
-392.1810956319314
 30
0.0
 11
-1418.389076487294
 21
-409.8590626003644
 31
0.0
  0
LINE
  5
24D
330
1F
100
AcDbEntity
  8
D-2
  6
Continuous
 62
     3
370
     9
100
AcDbLine
 10
-1453.744639264426
 20
-409.8590626003644
 30
0.0
 11
-1436.066672295993
 21
-392.1810956319314
 31
0.0
  0
LINE
  5
24E
330
1F
100
AcDbEntity
  8
D-2
  6
Continuous
 62
     3
370
     9
100
AcDbLine
 10
-1436.067043455728
 20
-427.5362872493298
 30
0.0
 11
-1453.744639264426
 21
-409.8590626003644
 31
0.0
  0
LINE
  5
24F
330
1F
100
AcDbEntity
  8
D-2
  6
JWW_CENTER1
 62
     3
370
     9
100
AcDbLine
 10
-1436.066672295993
 20
-436.3661773200647
 30
0.0
 11
-1436.066672295993
 21
-383.3508344014626
 31
0.0
  0
LINE
  5
250
330
1F
100
AcDbEntity
  8
D-2
  6
JWW_CENTER1
 62
     3
370
     9
100
AcDbLine
 10
-1409.559186416559
 20
-409.8590626003644
 30
0.0
 11
-1462.574529335162
 21
-409.8590626003644
 31
0.0
  0
LINE
  5
251
330
1F
100
AcDbEntity
  8
D-2
  6
Continuous
 62
     3
370
     9
100
AcDbLine
 10
-1430.888994007354
 20
-397.3584027608376
 30
0.0
 11
-1423.567125935668
 21
-397.3584027608376
 31
0.0
  0
LINE
  5
252
330
1F
100
AcDbEntity
  8
D-2
  6
Continuous
 62
     3
370
     9
100
AcDbLine
 10
-1423.567125935668
 20
-397.3584027608376
 30
0.0
 11
-1423.567125935668
 21
-404.6806419922564
 31
0.0
  0
LINE
  5
253
330
1F
100
AcDbEntity
  8
D-2
  6
Continuous
 62
     3
370
     9
100
AcDbLine
 10
-1423.567125935668
 20
-415.0363697292707
 30
0.0
 11
-1423.567125935668
 21
-422.3589801204236
 31
0.0
  0
LINE
  5
254
330
1F
100
AcDbEntity
  8
D-2
  6
Continuous
 62
     3
370
     9
100
AcDbLine
 10
-1430.888994007354
 20
-422.3589801204236
 30
0.0
 11
-1423.567125935668
 21
-422.3589801204236
 31
0.0
  0
LINE
  5
255
330
1F
100
AcDbEntity
  8
D-2
  6
Continuous
 62
     3
370
     9
100
AcDbLine
 10
-1448.566960975787
 20
-422.3589801204236
 30
0.0
 11
-1441.244721744367
 21
-422.3589801204236
 31
0.0
  0
LINE
  5
256
330
1F
100
AcDbEntity
  8
D-2
  6
Continuous
 62
     3
370
     9
100
AcDbLine
 10
-1448.566960975787
 20
-415.0363697292707
 30
0.0
 11
-1448.566960975787
 21
-422.3589801204236
 31
0.0
  0
LINE
  5
257
330
1F
100
AcDbEntity
  8
D-2
  6
Continuous
 62
     3
370
     9
100
AcDbLine
 10
-1448.566960975787
 20
-397.3584027608376
 30
0.0
 11
-1448.566960975787
 21
-404.6810131519905
 31
0.0
  0
LINE
  5
258
330
1F
100
AcDbEntity
  8
D-2
  6
Continuous
 62
     3
370
     9
100
AcDbLine
 10
-1448.566960975787
 20
-397.3584027608376
 30
0.0
 11
-1441.243979424899
 21
-397.3584027608376
 31
0.0
  0
TEXT
  5
259
330
1F
100
AcDbEntity
  8
D-4
  6
Continuous
 62
     2
370
     9
100
AcDbText
 10
-1634.803424682211
 20
0.638590311309386
 30
0.0
 40
30.48
  1
□510
 41
1.1
  7
ＭＳ ゴシック
100
AcDbText
  0
LINE
  5
25A
330
1F
100
AcDbEntity
  8
D-1
  6
Continuous
 62
     2
370
     9
100
AcDbLine
 10
-931.268202651874
 20
-471.8583439202368
 30
0.0
 11
-926.2679314507403
 21
-471.8583439202368
 31
0.0
  0
LINE
  5
25B
330
1F
100
AcDbEntity
  8
D-1
  6
Continuous
 62
     2
370
     9
100
AcDbLine
 10
-926.2679314507403
 20
-356.8590496392309
 30
0.0
 11
-926.2679314507403
 21
-456.8585251183569
 31
0.0
  0
LINE
  5
25C
330
1F
100
AcDbEntity
  8
D-4
  6
Continuous
 62
     7
370
     9
100
AcDbLine
 10
-936.2669870761164
 20
-129.6876667351771
 30
0.0
 11
-931.2667161120334
 21
-129.6876667351771
 31
0.0
  0
LINE
  5
25D
330
1F
100
AcDbEntity
  8
D-4
  6
Continuous
 62
     7
370
     9
100
AcDbLine
 10
-1061.267818797962
 20
-238.4400318474817
 30
0.0
 11
-936.2669870761164
 21
-238.4400318474817
 31
0.0
  0
LINE
  5
25E
330
1F
100
AcDbEntity
  8
D-4
  6
Continuous
 62
     7
370
     9
100
AcDbLine
 10
-936.2669870761164
 20
-343.9035318703711
 30
0.0
 11
-936.2669870761164
 21
-126.6880939812708
 31
0.0
  0
LINE
  5
25F
330
1F
100
AcDbEntity
  8
D-4
  6
Continuous
 62
     7
370
     9
100
AcDbLine
 10
-926.2669414175906
 20
-343.9035318703711
 30
0.0
 11
-926.2669414175906
 21
-126.6880939812708
 31
0.0
  0
LINE
  5
260
330
1F
100
AcDbEntity
  8
D-4
  6
Continuous
 62
     7
370
     9
100
AcDbLine
 10
-911.2681072844424
 20
-343.9035318703711
 30
0.0
 11
-911.2681072844424
 21
-15.9914730401087
 31
0.0
  0
LINE
  5
261
330
1F
100
AcDbEntity
  8
D-6
  6
Continuous
 62
     6
370
     9
100
AcDbLine
 10
-661.2679332388797
 20
-602.8682087273658
 30
0.0
 11
-565.257038463489
 21
-506.8582580895483
 31
0.0
  0
LINE
  5
262
330
1F
100
AcDbEntity
  8
D-6
  6
Continuous
 62
     6
370
     9
100
AcDbLine
 10
-661.2679332388797
 20
-506.8582580895483
 30
0.0
 11
-496.2669414175906
 21
-506.8582580895483
 31
0.0
  0
LINE
  5
263
330
1F
100
AcDbEntity
  8
D-6
  6
Continuous
 62
     6
370
     9
100
AcDbLine
 10
-661.2679332388797
 20
-617.0098827691138
 30
0.0
 11
-551.1162990225711
 21
-506.8582580895483
 31
0.0
  0
LINE
  5
264
330
1F
100
AcDbEntity
  8
D-6
  6
Continuous
 62
     6
370
     9
100
AcDbLine
 10
-911.2676161421695
 20
-681.858820757395
 30
0.0
 11
-911.2676161421695
 21
-856.8584011406958
 31
0.0
  0
LINE
  5
265
330
1F
100
AcDbEntity
  8
D-6
  6
Continuous
 62
     6
370
     9
100
AcDbLine
 10
-661.2679332388797
 20
-506.8582580895483
 30
0.0
 11
-661.2679332388797
 21
-681.858820757395
 31
0.0
  0
LINE
  5
266
330
1F
100
AcDbEntity
  8
D-6
  6
Continuous
 62
     6
370
     9
100
AcDbLine
 10
-911.2676161421695
 20
-681.858820757395
 30
0.0
 11
-661.2679332388797
 21
-681.858820757395
 31
0.0
  0
LINE
  5
267
330
1F
100
AcDbEntity
  8
D-4
  6
Continuous
 62
     7
370
     9
100
AcDbLine
 10
-1061.267818797962
 20
-343.9035318703711
 30
0.0
 11
-1061.267818797962
 21
-235.4394672722864
 31
0.0
  0
LINE
  5
268
330
1F
100
AcDbEntity
  8
D-4
  6
Continuous
 62
     7
370
     9
100
AcDbLine
 10
-931.2667161120334
 20
-129.6876667351771
 30
0.0
 11
-873.6065381659427
 21
-129.6876667351771
 31
0.0
  0
LINE
  5
269
330
1F
100
AcDbEntity
  8
D-4
  6
Continuous
 62
     7
370
     9
100
AcDbLine
 10
-1633.936085094349
 20
-238.4400318474817
 30
0.0
 11
-1061.267818797962
 21
-238.4400318474817
 31
0.0
  0
LINE
  5
26A
330
1F
100
AcDbEntity
  8
D-4
  6
Continuous
 62
     7
370
     9
100
AcDbLine
 10
-1633.936085094349
 20
-129.6876667351771
 30
0.0
 11
-936.2669870761164
 21
-129.6876667351771
 31
0.0
  0
LINE
  5
26B
330
1F
100
AcDbEntity
  8
D-4
  6
Continuous
 62
     7
370
     9
100
AcDbLine
 10
-1633.936085094349
 20
-18.9919613213587
 30
0.0
 11
-911.2681072844424
 21
-18.9919613213587
 31
0.0
  0
LINE
  5
26C
330
1F
100
AcDbEntity
  8
D-1
  6
Continuous
 62
     2
370
     9
100
AcDbLine
 10
-926.2679314507403
 20
-456.8585251183569
 30
0.0
 11
-1061.268314708606
 21
-456.8585251183569
 31
0.0
  0
LINE
  5
26D
330
1F
100
AcDbEntity
  8
D-1
  6
Continuous
 62
     2
370
     9
100
AcDbLine
 10
-1061.268314708606
 20
-471.8583439202368
 30
0.0
 11
-1061.268314708606
 21
-456.8585251183569
 31
0.0
  0
LINE
  5
26E
330
1F
100
AcDbEntity
  8
D-1
  6
Continuous
 62
     2
370
     9
100
AcDbLine
 10
-1061.268314708606
 20
-471.8583439202368
 30
0.0
 11
-931.268202651874
 21
-471.8583439202368
 31
0.0
  0
LINE
  5
26F
330
1F
100
AcDbEntity
  8
D-6
  6
Continuous
 62
     6
370
     9
100
AcDbLine
 10
-911.2676161421695
 20
-852.8668926568091
 30
0.0
 11
-740.2581065787234
 21
-681.858820757395
 31
0.0
  0
LINE
  5
270
330
1F
100
AcDbEntity
  8
D-6
  6
Continuous
 62
     6
370
     9
100
AcDbLine
 10
-901.1179369582095
 20
-856.8584011406958
 30
0.0
 11
-726.1173671378054
 21
-681.858820757395
 31
0.0
  0
LINE
  5
271
330
1F
100
AcDbEntity
  8
D-6
  6
Continuous
 62
     6
370
     9
100
AcDbLine
 10
-661.2679332388797
 20
-631.1505649895728
 30
0.0
 11
-536.9756358755984
 21
-506.8582580895483
 31
0.0
  0
LINE
  5
272
330
1F
100
AcDbEntity
  8
D-6
  6
Continuous
 62
     6
370
     9
100
AcDbLine
 10
-886.9780057562747
 20
-856.8584011406958
 30
0.0
 11
-711.97723804845
 21
-681.858820757395
 31
0.0
  0
LINE
  5
273
330
1F
100
AcDbEntity
  8
D-0
  6
Continuous
 62
     7
370
     9
100
AcDbLine
 10
-760.9742206229129
 20
-605.1949451775611
 30
0.0
 11
-760.9742206229129
 21
-603.6946628899634
 31
0.0
  0
LINE
  5
274
330
1F
100
AcDbEntity
  8
D-0
  6
Continuous
 62
     7
370
     9
100
AcDbLine
 10
-760.9742206229129
 20
-603.6946628899634
 30
0.0
 11
-759.4741862906375
 21
-603.6946628899634
 31
0.0
  0
LINE
  5
275
330
1F
100
AcDbEntity
  8
D-0
  6
Continuous
 62
     7
370
     9
100
AcDbLine
 10
-759.4741862906375
 20
-603.6946628899634
 30
0.0
 11
-759.4741862906375
 21
-605.1949451775611
 31
0.0
  0
LINE
  5
276
330
1F
100
AcDbEntity
  8
D-0
  6
Continuous
 62
     7
370
     9
100
AcDbLine
 10
-759.4741862906375
 20
-605.1949451775611
 30
0.0
 11
-760.9742206229129
 21
-605.1949451775611
 31
0.0
  0
LINE
  5
277
330
1F
100
AcDbEntity
  8
D-0
  6
Continuous
 62
     7
370
     9
100
AcDbLine
 10
-721.0461276663699
 20
-634.971613726145
 30
0.0
 11
-721.0461276663699
 21
-633.4713314385474
 31
0.0
  0
LINE
  5
278
330
1F
100
AcDbEntity
  8
D-0
  6
Continuous
 62
     7
370
     9
100
AcDbLine
 10
-721.0461276663699
 20
-633.4713314385474
 30
0.0
 11
-719.5460933340945
 21
-633.4713314385474
 31
0.0
  0
LINE
  5
279
330
1F
100
AcDbEntity
  8
D-0
  6
Continuous
 62
     7
370
     9
100
AcDbLine
 10
-719.5460933340945
 20
-633.4713314385474
 30
0.0
 11
-719.5460933340945
 21
-634.971613726145
 31
0.0
  0
LINE
  5
27A
330
1F
100
AcDbEntity
  8
D-0
  6
Continuous
 62
     7
370
     9
100
AcDbLine
 10
-719.5460933340945
 20
-634.971613726145
 30
0.0
 11
-721.0461276663699
 21
-634.971613726145
 31
0.0
  0
LINE
  5
27B
330
1F
100
AcDbEntity
  8
D-0
  6
Continuous
 62
     7
370
     9
100
AcDbLine
 10
-755.5602306021609
 20
-655.2739475579322
 30
0.0
 11
-755.5602306021609
 21
-653.7736652703345
 31
0.0
  0
LINE
  5
27C
330
1F
100
AcDbEntity
  8
D-0
  6
Continuous
 62
     7
370
     9
100
AcDbLine
 10
-755.5602306021609
 20
-653.7736652703345
 30
0.0
 11
-754.0601962698855
 21
-653.7736652703345
 31
0.0
  0
LINE
  5
27D
330
1F
100
AcDbEntity
  8
D-0
  6
Continuous
 62
     7
370
     9
100
AcDbLine
 10
-754.0601962698855
 20
-653.7736652703345
 30
0.0
 11
-754.0601962698855
 21
-655.2739475579322
 31
0.0
  0
LINE
  5
27E
330
1F
100
AcDbEntity
  8
D-0
  6
Continuous
 62
     7
370
     9
100
AcDbLine
 10
-754.0601962698855
 20
-655.2739475579322
 30
0.0
 11
-755.5602306021609
 21
-655.2739475579322
 31
0.0
  0
LINE
  5
27F
330
1F
100
AcDbEntity
  8
D-0
  6
Continuous
 62
     7
370
     9
100
AcDbLine
 10
-690.5925029410281
 20
-657.30437739802
 30
0.0
 11
-690.5925029410281
 21
-655.8040951104224
 31
0.0
  0
LINE
  5
280
330
1F
100
AcDbEntity
  8
D-0
  6
Continuous
 62
     7
370
     9
100
AcDbLine
 10
-690.5925029410281
 20
-655.8040951104224
 30
0.0
 11
-689.0924686087527
 21
-655.8040951104224
 31
0.0
  0
LINE
  5
281
330
1F
100
AcDbEntity
  8
D-0
  6
Continuous
 62
     7
370
     9
100
AcDbLine
 10
-689.0924686087527
 20
-655.8040951104224
 30
0.0
 11
-689.0924686087527
 21
-657.30437739802
 31
0.0
  0
LINE
  5
282
330
1F
100
AcDbEntity
  8
D-0
  6
Continuous
 62
     7
370
     9
100
AcDbLine
 10
-689.0924686087527
 20
-657.30437739802
 30
0.0
 11
-690.5925029410281
 21
-657.30437739802
 31
0.0
  0
LINE
  5
283
330
1F
100
AcDbEntity
  8
D-0
  6
Continuous
 62
     7
370
     9
100
AcDbLine
 10
-884.1420644415774
 20
-377.8080271096289
 30
0.0
 11
-884.1420644415774
 21
-376.3076852173864
 31
0.0
  0
LINE
  5
284
330
1F
100
AcDbEntity
  8
D-0
  6
Continuous
 62
     7
370
     9
100
AcDbLine
 10
-884.1420644415774
 20
-376.3076852173864
 30
0.0
 11
-882.6420348776736
 21
-376.3076852173864
 31
0.0
  0
LINE
  5
285
330
1F
100
AcDbEntity
  8
D-0
  6
Continuous
 62
     7
370
     9
100
AcDbLine
 10
-882.6420348776736
 20
-376.3076852173864
 30
0.0
 11
-882.6420348776736
 21
-377.8080271096289
 31
0.0
  0
LINE
  5
286
330
1F
100
AcDbEntity
  8
D-0
  6
Continuous
 62
     7
370
     9
100
AcDbLine
 10
-882.6420348776736
 20
-377.8080271096289
 30
0.0
 11
-884.1420644415774
 21
-377.8080271096289
 31
0.0
  0
LINE
  5
287
330
1F
100
AcDbEntity
  8
D-0
  6
Continuous
 62
     7
370
     9
100
AcDbLine
 10
-830.0023120535769
 20
-377.1312163682043
 30
0.0
 11
-830.0023120535769
 21
-375.6308756680548
 31
0.0
  0
LINE
  5
288
330
1F
100
AcDbEntity
  8
D-0
  6
Continuous
 62
     7
370
     9
100
AcDbLine
 10
-830.0023120535769
 20
-375.6308756680548
 30
0.0
 11
-828.5022872580447
 21
-375.6308756680548
 31
0.0
  0
LINE
  5
289
330
1F
100
AcDbEntity
  8
D-0
  6
Continuous
 62
     7
370
     9
100
AcDbLine
 10
-828.5022872580447
 20
-375.6308756680548
 30
0.0
 11
-828.5022872580447
 21
-377.1312163682043
 31
0.0
  0
LINE
  5
28A
330
1F
100
AcDbEntity
  8
D-0
  6
Continuous
 62
     7
370
     9
100
AcDbLine
 10
-828.5022872580447
 20
-377.1312163682043
 30
0.0
 11
-830.0023120535769
 21
-377.1312163682043
 31
0.0
  0
LINE
  5
28B
330
1F
100
AcDbEntity
  8
D-0
  6
Continuous
 62
     7
370
     9
100
AcDbLine
 10
-787.367224086658
 20
-400.8175991387427
 30
0.0
 11
-787.367224086658
 21
-399.3172548623144
 31
0.0
  0
LINE
  5
28C
330
1F
100
AcDbEntity
  8
D-0
  6
Continuous
 62
     7
370
     9
100
AcDbLine
 10
-787.367224086658
 20
-399.3172548623144
 30
0.0
 11
-785.8671992911258
 21
-399.3172548623144
 31
0.0
  0
LINE
  5
28D
330
1F
100
AcDbEntity
  8
D-0
  6
Continuous
 62
     7
370
     9
100
AcDbLine
 10
-785.8671992911258
 20
-399.3172548623144
 30
0.0
 11
-785.8671992911258
 21
-400.8175991387427
 31
0.0
  0
LINE
  5
28E
330
1F
100
AcDbEntity
  8
D-0
  6
Continuous
 62
     7
370
     9
100
AcDbLine
 10
-785.8671992911258
 20
-400.8175991387427
 30
0.0
 11
-787.367224086658
 21
-400.8175991387427
 31
0.0
  0
LINE
  5
28F
330
1F
100
AcDbEntity
  8
D-0
  6
Continuous
 62
     7
370
     9
100
AcDbLine
 10
-763.6810916556277
 20
-379.8383949608862
 30
0.0
 11
-763.6810916556277
 21
-378.3381174416601
 31
0.0
  0
LINE
  5
290
330
1F
100
AcDbEntity
  8
D-0
  6
Continuous
 62
     7
370
     9
100
AcDbLine
 10
-763.6810916556277
 20
-378.3381174416601
 30
0.0
 11
-762.1810573233523
 21
-378.3381174416601
 31
0.0
  0
LINE
  5
291
330
1F
100
AcDbEntity
  8
D-0
  6
Continuous
 62
     7
370
     9
100
AcDbLine
 10
-762.1810573233523
 20
-378.3381174416601
 30
0.0
 11
-762.1810573233523
 21
-379.8383949608862
 31
0.0
  0
LINE
  5
292
330
1F
100
AcDbEntity
  8
D-0
  6
Continuous
 62
     7
370
     9
100
AcDbLine
 10
-762.1810573233523
 20
-379.8383949608862
 30
0.0
 11
-763.6810916556277
 21
-379.8383949608862
 31
0.0
  0
LINE
  5
293
330
1F
100
AcDbEntity
  8
D-0
  6
Continuous
 62
     7
370
     9
100
AcDbLine
 10
-763.0044597281375
 20
-448.8666103692114
 30
0.0
 11
-763.0044597281375
 21
-447.3663280816137
 31
0.0
  0
LINE
  5
294
330
1F
100
AcDbEntity
  8
D-0
  6
Continuous
 62
     7
370
     9
100
AcDbLine
 10
-763.0044597281375
 20
-447.3663280816137
 30
0.0
 11
-761.5043681754031
 21
-447.3663280816137
 31
0.0
  0
LINE
  5
295
330
1F
100
AcDbEntity
  8
D-0
  6
Continuous
 62
     7
370
     9
100
AcDbLine
 10
-761.5043681754031
 20
-447.3663280816137
 30
0.0
 11
-761.5043681754031
 21
-448.8666103692114
 31
0.0
  0
LINE
  5
296
330
1F
100
AcDbEntity
  8
D-0
  6
Continuous
 62
     7
370
     9
100
AcDbLine
 10
-761.5043681754031
 20
-448.8666103692114
 30
0.0
 11
-763.0044597281375
 21
-448.8666103692114
 31
0.0
  0
LINE
  5
297
330
1F
100
AcDbEntity
  8
D-0
  6
Continuous
 62
     7
370
     9
100
AcDbLine
 10
-634.4225734366336
 20
-377.8080271096289
 30
0.0
 11
-634.4225734366336
 21
-376.3076852173864
 31
0.0
  0
LINE
  5
298
330
1F
100
AcDbEntity
  8
D-0
  6
Continuous
 62
     7
370
     9
100
AcDbLine
 10
-634.4225734366336
 20
-376.3076852173864
 30
0.0
 11
-632.9225963248172
 21
-376.3076852173864
 31
0.0
  0
LINE
  5
299
330
1F
100
AcDbEntity
  8
D-0
  6
Continuous
 62
     7
370
     9
100
AcDbLine
 10
-632.9225963248172
 20
-376.3076852173864
 30
0.0
 11
-632.9225963248172
 21
-377.8080271096289
 31
0.0
  0
LINE
  5
29A
330
1F
100
AcDbEntity
  8
D-0
  6
Continuous
 62
     7
370
     9
100
AcDbLine
 10
-632.9225963248172
 20
-377.8080271096289
 30
0.0
 11
-634.4225734366336
 21
-377.8080271096289
 31
0.0
  0
LINE
  5
29B
330
1F
100
AcDbEntity
  8
D-0
  6
Continuous
 62
     7
370
     9
100
AcDbLine
 10
-583.6666148795047
 20
-380.5152057023108
 30
0.0
 11
-583.6666148795047
 21
-379.0149877877295
 31
0.0
  0
LINE
  5
29C
330
1F
100
AcDbEntity
  8
D-0
  6
Continuous
 62
     7
370
     9
100
AcDbLine
 10
-583.6666148795047
 20
-379.0149877877295
 30
0.0
 11
-582.1665996207156
 21
-379.0149877877295
 31
0.0
  0
LINE
  5
29D
330
1F
100
AcDbEntity
  8
D-0
  6
Continuous
 62
     7
370
     9
100
AcDbLine
 10
-582.1665996207156
 20
-379.0149877877295
 30
0.0
 11
-582.1665996207156
 21
-380.5152057023108
 31
0.0
  0
LINE
  5
29E
330
1F
100
AcDbEntity
  8
D-0
  6
Continuous
 62
     7
370
     9
100
AcDbLine
 10
-582.1665996207156
 20
-380.5152057023108
 30
0.0
 11
-583.6666148795047
 21
-380.5152057023108
 31
0.0
  0
LINE
  5
29F
330
1F
100
AcDbEntity
  8
D-0
  6
Continuous
 62
     7
370
     9
100
AcDbLine
 10
-518.6989635123172
 20
-378.4847758622229
 30
0.0
 11
-518.6989635123172
 21
-376.984495958811
 31
0.0
  0
LINE
  5
2A0
330
1F
100
AcDbEntity
  8
D-0
  6
Continuous
 62
     7
370
     9
100
AcDbLine
 10
-518.6989635123172
 20
-376.984495958811
 30
0.0
 11
-517.1988719595828
 21
-376.984495958811
 31
0.0
  0
LINE
  5
2A1
330
1F
100
AcDbEntity
  8
D-0
  6
Continuous
 62
     7
370
     9
100
AcDbLine
 10
-517.1988719595828
 20
-376.984495958811
 30
0.0
 11
-517.1988719595828
 21
-378.4847758622229
 31
0.0
  0
LINE
  5
2A2
330
1F
100
AcDbEntity
  8
D-0
  6
Continuous
 62
     7
370
     9
100
AcDbLine
 10
-517.1988719595828
 20
-378.4847758622229
 30
0.0
 11
-518.6989635123172
 21
-378.4847758622229
 31
0.0
  0
LINE
  5
2A3
330
1F
100
AcDbEntity
  8
D-0
  6
Continuous
 62
     7
370
     9
100
AcDbLine
 10
-543.0618327750125
 20
-410.9686992974341
 30
0.0
 11
-543.0618327750125
 21
-409.4684837670385
 31
0.0
  0
LINE
  5
2A4
330
1F
100
AcDbEntity
  8
D-0
  6
Continuous
 62
     7
370
     9
100
AcDbLine
 10
-543.0618327750125
 20
-409.4684837670385
 30
0.0
 11
-541.5618175162234
 21
-409.4684837670385
 31
0.0
  0
LINE
  5
2A5
330
1F
100
AcDbEntity
  8
D-0
  6
Continuous
 62
     7
370
     9
100
AcDbLine
 10
-541.5618175162234
 20
-409.4684837670385
 30
0.0
 11
-541.5618175162234
 21
-410.9686992974341
 31
0.0
  0
LINE
  5
2A6
330
1F
100
AcDbEntity
  8
D-0
  6
Continuous
 62
     7
370
     9
100
AcDbLine
 10
-541.5618175162234
 20
-410.9686992974341
 30
0.0
 11
-543.0618327750125
 21
-410.9686992974341
 31
0.0
  0
LINE
  5
2A7
330
1F
100
AcDbEntity
  8
D-0
  6
Continuous
 62
     7
370
     9
100
AcDbLine
 10
-582.9898112906375
 20
-434.6545837731421
 30
0.0
 11
-582.9898112906375
 21
-433.154306253916
 31
0.0
  0
LINE
  5
2A8
330
1F
100
AcDbEntity
  8
D-0
  6
Continuous
 62
     7
370
     9
100
AcDbLine
 10
-582.9898112906375
 20
-433.154306253916
 30
0.0
 11
-581.4897960318484
 21
-433.154306253916
 31
0.0
  0
LINE
  5
2A9
330
1F
100
AcDbEntity
  8
D-0
  6
Continuous
 62
     7
370
     9
100
AcDbLine
 10
-581.4897960318484
 20
-433.154306253916
 30
0.0
 11
-581.4897960318484
 21
-434.6545837731421
 31
0.0
  0
LINE
  5
2AA
330
1F
100
AcDbEntity
  8
D-0
  6
Continuous
 62
     7
370
     9
100
AcDbLine
 10
-581.4897960318484
 20
-434.6545837731421
 30
0.0
 11
-582.9898112906375
 21
-434.6545837731421
 31
0.0
  0
LINE
  5
2AB
330
1F
100
AcDbEntity
  8
D-0
  6
Continuous
 62
     7
370
     9
100
AcDbLine
 10
-610.7364314688601
 20
-448.8666103692114
 30
0.0
 11
-610.7364314688601
 21
-447.3663280816137
 31
0.0
  0
LINE
  5
2AC
330
1F
100
AcDbEntity
  8
D-0
  6
Continuous
 62
     7
370
     9
100
AcDbLine
 10
-610.7364314688601
 20
-447.3663280816137
 30
0.0
 11
-609.2364543570437
 21
-447.3663280816137
 31
0.0
  0
LINE
  5
2AD
330
1F
100
AcDbEntity
  8
D-0
  6
Continuous
 62
     7
370
     9
100
AcDbLine
 10
-609.2364543570437
 20
-447.3663280816137
 30
0.0
 11
-609.2364543570437
 21
-448.8666103692114
 31
0.0
  0
LINE
  5
2AE
330
1F
100
AcDbEntity
  8
D-0
  6
Continuous
 62
     7
370
     9
100
AcDbLine
 10
-609.2364543570437
 20
-448.8666103692114
 30
0.0
 11
-610.7364314688601
 21
-448.8666103692114
 31
0.0
  0
LINE
  5
2AF
330
1F
100
AcDbEntity
  8
D-0
  6
Continuous
 62
     7
370
     9
100
AcDbLine
 10
-635.77606617345
 20
-419.7662447304785
 30
0.0
 11
-635.77606617345
 21
-418.2659624428808
 31
0.0
  0
LINE
  5
2B0
330
1F
100
AcDbEntity
  8
D-0
  6
Continuous
 62
     7
370
     9
100
AcDbLine
 10
-635.77606617345
 20
-418.2659624428808
 30
0.0
 11
-634.2760318411746
 21
-418.2659624428808
 31
0.0
  0
LINE
  5
2B1
330
1F
100
AcDbEntity
  8
D-0
  6
Continuous
 62
     7
370
     9
100
AcDbLine
 10
-634.2760318411746
 20
-418.2659624428808
 30
0.0
 11
-634.2760318411746
 21
-419.7662447304785
 31
0.0
  0
LINE
  5
2B2
330
1F
100
AcDbEntity
  8
D-0
  6
Continuous
 62
     7
370
     9
100
AcDbLine
 10
-634.2760318411746
 20
-419.7662447304785
 30
0.0
 11
-635.77606617345
 21
-419.7662447304785
 31
0.0
  0
LINE
  5
2B3
330
1F
100
AcDbEntity
  8
D-0
  6
Continuous
 62
     7
370
     9
100
AcDbLine
 10
-615.4737895621219
 20
-484.0572784752905
 30
0.0
 11
-615.4737895621219
 21
-482.5569961876928
 31
0.0
  0
LINE
  5
2B4
330
1F
100
AcDbEntity
  8
D-0
  6
Continuous
 62
     7
370
     9
100
AcDbLine
 10
-615.4737895621219
 20
-482.5569961876928
 30
0.0
 11
-613.9736980093875
 21
-482.5569961876928
 31
0.0
  0
LINE
  5
2B5
330
1F
100
AcDbEntity
  8
D-0
  6
Continuous
 62
     7
370
     9
100
AcDbLine
 10
-613.9736980093875
 20
-482.5569961876928
 30
0.0
 11
-613.9736980093875
 21
-484.0572784752905
 31
0.0
  0
LINE
  5
2B6
330
1F
100
AcDbEntity
  8
D-0
  6
Continuous
 62
     7
370
     9
100
AcDbLine
 10
-613.9736980093875
 20
-484.0572784752905
 30
0.0
 11
-615.4737895621219
 21
-484.0572784752905
 31
0.0
  0
LINE
  5
2B7
330
1F
100
AcDbEntity
  8
D-0
  6
Continuous
 62
     7
370
     9
100
AcDbLine
 10
-557.9501765860476
 20
-482.703661760813
 30
0.0
 11
-557.9501765860476
 21
-481.2033794732153
 31
0.0
  0
LINE
  5
2B8
330
1F
100
AcDbEntity
  8
D-0
  6
Continuous
 62
     7
370
     9
100
AcDbLine
 10
-557.9501765860476
 20
-481.2033794732153
 30
0.0
 11
-556.4501994742312
 21
-481.2033794732153
 31
0.0
  0
LINE
  5
2B9
330
1F
100
AcDbEntity
  8
D-0
  6
Continuous
 62
     7
370
     9
100
AcDbLine
 10
-556.4501994742312
 20
-481.2033794732153
 30
0.0
 11
-556.4501994742312
 21
-482.703661760813
 31
0.0
  0
LINE
  5
2BA
330
1F
100
AcDbEntity
  8
D-0
  6
Continuous
 62
     7
370
     9
100
AcDbLine
 10
-556.4501994742312
 20
-482.703661760813
 30
0.0
 11
-557.9501765860476
 21
-482.703661760813
 31
0.0
  0
LINE
  5
2BB
330
1F
100
AcDbEntity
  8
D-0
  6
Continuous
 62
     7
370
     9
100
AcDbLine
 10
-508.5477489127078
 20
-482.0268486352026
 30
0.0
 11
-508.5477489127078
 21
-480.526566347605
 31
0.0
  0
LINE
  5
2BC
330
1F
100
AcDbEntity
  8
D-0
  6
Continuous
 62
     7
370
     9
100
AcDbLine
 10
-508.5477489127078
 20
-480.526566347605
 30
0.0
 11
-507.0476955069461
 21
-480.526566347605
 31
0.0
  0
LINE
  5
2BD
330
1F
100
AcDbEntity
  8
D-0
  6
Continuous
 62
     7
370
     9
100
AcDbLine
 10
-507.0476955069461
 20
-480.526566347605
 30
0.0
 11
-507.0476955069461
 21
-482.0268486352026
 31
0.0
  0
LINE
  5
2BE
330
1F
100
AcDbEntity
  8
D-0
  6
Continuous
 62
     7
370
     9
100
AcDbLine
 10
-507.0476955069461
 20
-482.0268486352026
 30
0.0
 11
-508.5477489127078
 21
-482.0268486352026
 31
0.0
  0
LINE
  5
2BF
330
1F
100
AcDbEntity
  8
D-0
  6
Continuous
 62
     7
370
     9
100
AcDbLine
 10
-520.7292216910281
 20
-442.0990036339819
 30
0.0
 11
-520.7292216910281
 21
-440.5987213463843
 31
0.0
  0
LINE
  5
2C0
330
1F
100
AcDbEntity
  8
D-0
  6
Continuous
 62
     7
370
     9
100
AcDbLine
 10
-520.7292216910281
 20
-440.5987213463843
 30
0.0
 11
-519.2291682852664
 21
-440.5987213463843
 31
0.0
  0
LINE
  5
2C1
330
1F
100
AcDbEntity
  8
D-0
  6
Continuous
 62
     7
370
     9
100
AcDbLine
 10
-519.2291682852664
 20
-440.5987213463843
 30
0.0
 11
-519.2291682852664
 21
-442.0990036339819
 31
0.0
  0
LINE
  5
2C2
330
1F
100
AcDbEntity
  8
D-0
  6
Continuous
 62
     7
370
     9
100
AcDbLine
 10
-519.2291682852664
 20
-442.0990036339819
 30
0.0
 11
-520.7292216910281
 21
-442.0990036339819
 31
0.0
  0
LINE
  5
2C3
330
1F
100
AcDbEntity
  8
D-0
  6
Continuous
 62
     7
370
     9
100
AcDbLine
 10
-1042.289261211292
 20
-613.4003971428931
 30
0.0
 11
-1042.289261211292
 21
-611.9001148552954
 31
0.0
  0
LINE
  5
2C4
330
1F
100
AcDbEntity
  8
D-0
  6
Continuous
 62
     7
370
     9
100
AcDbLine
 10
-1042.289261211292
 20
-611.9001148552954
 30
0.0
 11
-1040.789226879016
 21
-611.9001148552954
 31
0.0
  0
LINE
  5
2C5
330
1F
100
AcDbEntity
  8
D-0
  6
Continuous
 62
     7
370
     9
100
AcDbLine
 10
-1040.789226879016
 20
-611.9001148552954
 30
0.0
 11
-1040.789226879016
 21
-613.4003971428931
 31
0.0
  0
LINE
  5
2C6
330
1F
100
AcDbEntity
  8
D-0
  6
Continuous
 62
     7
370
     9
100
AcDbLine
 10
-1040.789226879016
 20
-613.4003971428931
 30
0.0
 11
-1042.289261211292
 21
-613.4003971428931
 31
0.0
  0
LINE
  5
2C7
330
1F
100
AcDbEntity
  8
D-0
  6
Continuous
 62
     7
370
     9
100
AcDbLine
 10
-937.6050004257121
 20
-613.4003971428931
 30
0.0
 11
-937.6050004257121
 21
-611.9001148552954
 31
0.0
  0
LINE
  5
2C8
330
1F
100
AcDbEntity
  8
D-0
  6
Continuous
 62
     7
370
     9
100
AcDbLine
 10
-937.6050004257121
 20
-611.9001148552954
 30
0.0
 11
-936.1049687942722
 21
-611.9001148552954
 31
0.0
  0
LINE
  5
2C9
330
1F
100
AcDbEntity
  8
D-0
  6
Continuous
 62
     7
370
     9
100
AcDbLine
 10
-936.1049687942722
 20
-611.9001148552954
 30
0.0
 11
-936.1049687942722
 21
-613.4003971428931
 31
0.0
  0
LINE
  5
2CA
330
1F
100
AcDbEntity
  8
D-0
  6
Continuous
 62
     7
370
     9
100
AcDbLine
 10
-936.1049687942722
 20
-613.4003971428931
 30
0.0
 11
-937.6050004257121
 21
-613.4003971428931
 31
0.0
  0
LINE
  5
2CB
330
1F
100
AcDbEntity
  8
D-0
  6
Continuous
 62
     7
370
     9
100
AcDbLine
 10
-951.6898161066928
 20
-701.716227373606
 30
0.0
 11
-951.6898161066928
 21
-700.2159450860083
 31
0.0
  0
LINE
  5
2CC
330
1F
100
AcDbEntity
  8
D-0
  6
Continuous
 62
     7
370
     9
100
AcDbLine
 10
-951.6898161066928
 20
-700.2159450860083
 30
0.0
 11
-950.1897841586032
 21
-700.2159450860083
 31
0.0
  0
LINE
  5
2CD
330
1F
100
AcDbEntity
  8
D-0
  6
Continuous
 62
     7
370
     9
100
AcDbLine
 10
-950.1897841586032
 20
-700.2159450860083
 30
0.0
 11
-950.1897841586032
 21
-701.716227373606
 31
0.0
  0
LINE
  5
2CE
330
1F
100
AcDbEntity
  8
D-0
  6
Continuous
 62
     7
370
     9
100
AcDbLine
 10
-950.1897841586032
 20
-701.716227373606
 30
0.0
 11
-951.6898161066928
 21
-701.716227373606
 31
0.0
  0
LINE
  5
2CF
330
1F
100
AcDbEntity
  8
D-0
  6
Continuous
 62
     7
370
     9
100
AcDbLine
 10
-939.5083436263957
 20
-666.3139866204322
 30
0.0
 11
-939.5083436263957
 21
-664.8137043328345
 31
0.0
  0
LINE
  5
2D0
330
1F
100
AcDbEntity
  8
D-0
  6
Continuous
 62
     7
370
     9
100
AcDbLine
 10
-939.5083436263957
 20
-664.8137043328345
 30
0.0
 11
-938.0083119763293
 21
-664.8137043328345
 31
0.0
  0
LINE
  5
2D1
330
1F
100
AcDbEntity
  8
D-0
  6
Continuous
 62
     7
370
     9
100
AcDbLine
 10
-938.0083119763293
 20
-664.8137043328345
 30
0.0
 11
-938.0083119763293
 21
-666.3139866204322
 31
0.0
  0
LINE
  5
2D2
330
1F
100
AcDbEntity
  8
D-0
  6
Continuous
 62
     7
370
     9
100
AcDbLine
 10
-938.0083119763293
 20
-666.3139866204322
 30
0.0
 11
-939.5083436263957
 21
-666.3139866204322
 31
0.0
  0
LINE
  5
2D3
330
1F
100
AcDbEntity
  8
D-0
  6
Continuous
 62
     7
370
     9
100
AcDbLine
 10
-1040.005268443958
 20
-704.0003155083716
 30
0.0
 11
-1040.005268443958
 21
-702.500033220774
 31
0.0
  0
LINE
  5
2D4
330
1F
100
AcDbEntity
  8
D-0
  6
Continuous
 62
     7
370
     9
100
AcDbLine
 10
-1040.005268443958
 20
-702.500033220774
 30
0.0
 11
-1038.505234111683
 21
-702.500033220774
 31
0.0
  0
LINE
  5
2D5
330
1F
100
AcDbEntity
  8
D-0
  6
Continuous
 62
     7
370
     9
100
AcDbLine
 10
-1038.505234111683
 20
-702.500033220774
 30
0.0
 11
-1038.505234111683
 21
-704.0003155083716
 31
0.0
  0
LINE
  5
2D6
330
1F
100
AcDbEntity
  8
D-0
  6
Continuous
 62
     7
370
     9
100
AcDbLine
 10
-1038.505234111683
 20
-704.0003155083716
 30
0.0
 11
-1040.005268443958
 21
-704.0003155083716
 31
0.0
  0
LINE
  5
2D7
330
1F
100
AcDbEntity
  8
D-0
  6
Continuous
 62
     7
370
     9
100
AcDbLine
 10
-995.8474820746341
 20
-707.0454738946021
 30
0.0
 11
-995.8474820746341
 21
-705.5451916070044
 31
0.0
  0
LINE
  5
2D8
330
1F
100
AcDbEntity
  8
D-0
  6
Continuous
 62
     7
370
     9
100
AcDbLine
 10
-995.8474820746341
 20
-705.5451916070044
 30
0.0
 11
-994.3474525107302
 21
-705.5451916070044
 31
0.0
  0
LINE
  5
2D9
330
1F
100
AcDbEntity
  8
D-0
  6
Continuous
 62
     7
370
     9
100
AcDbLine
 10
-994.3474525107302
 20
-705.5451916070044
 30
0.0
 11
-994.3474525107302
 21
-707.0454738946021
 31
0.0
  0
LINE
  5
2DA
330
1F
100
AcDbEntity
  8
D-0
  6
Continuous
 62
     7
370
     9
100
AcDbLine
 10
-994.3474525107302
 20
-707.0454738946021
 30
0.0
 11
-995.8474820746341
 21
-707.0454738946021
 31
0.0
  0
LINE
  5
2DB
330
1F
100
AcDbEntity
  8
D-0
  6
Continuous
 62
     7
370
     9
100
AcDbLine
 10
-992.4214404715457
 20
-669.3591259331763
 30
0.0
 11
-992.4214404715457
 21
-667.858862719065
 31
0.0
  0
LINE
  5
2DC
330
1F
100
AcDbEntity
  8
D-0
  6
Continuous
 62
     7
370
     9
100
AcDbLine
 10
-992.4214404715457
 20
-667.858862719065
 30
0.0
 11
-990.9214061392703
 21
-667.858862719065
 31
0.0
  0
LINE
  5
2DD
330
1F
100
AcDbEntity
  8
D-0
  6
Continuous
 62
     7
370
     9
100
AcDbLine
 10
-990.9214061392703
 20
-667.858862719065
 30
0.0
 11
-990.9214061392703
 21
-669.3591259331763
 31
0.0
  0
LINE
  5
2DE
330
1F
100
AcDbEntity
  8
D-0
  6
Continuous
 62
     7
370
     9
100
AcDbLine
 10
-990.9214061392703
 20
-669.3591259331763
 30
0.0
 11
-992.4214404715457
 21
-669.3591259331763
 31
0.0
  0
LINE
  5
2DF
330
1F
100
AcDbEntity
  8
D-0
  6
Continuous
 62
     7
370
     9
100
AcDbLine
 10
-1043.050541271106
 20
-667.8360699029029
 30
0.0
 11
-1043.050541271106
 21
-666.3357876153052
 31
0.0
  0
LINE
  5
2E0
330
1F
100
AcDbEntity
  8
D-0
  6
Continuous
 62
     7
370
     9
100
AcDbLine
 10
-1043.050541271106
 20
-666.3357876153052
 30
0.0
 11
-1041.550516475574
 21
-666.3357876153052
 31
0.0
  0
LINE
  5
2E1
330
1F
100
AcDbEntity
  8
D-0
  6
Continuous
 62
     7
370
     9
100
AcDbLine
 10
-1041.550516475574
 20
-666.3357876153052
 30
0.0
 11
-1041.550516475574
 21
-667.8360699029029
 31
0.0
  0
LINE
  5
2E2
330
1F
100
AcDbEntity
  8
D-0
  6
Continuous
 62
     7
370
     9
100
AcDbLine
 10
-1041.550516475574
 20
-667.8360699029029
 30
0.0
 11
-1043.050541271106
 21
-667.8360699029029
 31
0.0
  0
LINE
  5
2E3
330
1F
100
AcDbEntity
  8
D-0
  6
Continuous
 62
     7
370
     9
100
AcDbLine
 10
-1034.675878871814
 20
-789.2705105156958
 30
0.0
 11
-1034.675878871814
 21
-787.7702282280982
 31
0.0
  0
LINE
  5
2E4
330
1F
100
AcDbEntity
  8
D-0
  6
Continuous
 62
     7
370
     9
100
AcDbLine
 10
-1034.675878871814
 20
-787.7702282280982
 30
0.0
 11
-1033.175854076282
 21
-787.7702282280982
 31
0.0
  0
LINE
  5
2E5
330
1F
100
AcDbEntity
  8
D-0
  6
Continuous
 62
     7
370
     9
100
AcDbLine
 10
-1033.175854076282
 20
-787.7702282280982
 30
0.0
 11
-1033.175854076282
 21
-789.2705105156958
 31
0.0
  0
LINE
  5
2E6
330
1F
100
AcDbEntity
  8
D-0
  6
Continuous
 62
     7
370
     9
100
AcDbLine
 10
-1033.175854076282
 20
-789.2705105156958
 30
0.0
 11
-1034.675878871814
 21
-789.2705105156958
 31
0.0
  0
LINE
  5
2E7
330
1F
100
AcDbEntity
  8
D-0
  6
Continuous
 62
     7
370
     9
100
AcDbLine
 10
-982.9047244681277
 20
-785.4633282036841
 30
0.0
 11
-982.9047244681277
 21
-783.9630459160865
 31
0.0
  0
LINE
  5
2E8
330
1F
100
AcDbEntity
  8
D-0
  6
Continuous
 62
     7
370
     9
100
AcDbLine
 10
-982.9047244681277
 20
-783.9630459160865
 30
0.0
 11
-981.4046901358523
 21
-783.9630459160865
 31
0.0
  0
LINE
  5
2E9
330
1F
100
AcDbEntity
  8
D-0
  6
Continuous
 62
     7
370
     9
100
AcDbLine
 10
-981.4046901358523
 20
-783.9630459160865
 30
0.0
 11
-981.4046901358523
 21
-785.4633282036841
 31
0.0
  0
LINE
  5
2EA
330
1F
100
AcDbEntity
  8
D-0
  6
Continuous
 62
     7
370
     9
100
AcDbLine
 10
-981.4046901358523
 20
-785.4633282036841
 30
0.0
 11
-982.9047244681277
 21
-785.4633282036841
 31
0.0
  0
LINE
  5
2EB
330
1F
100
AcDbEntity
  8
D-0
  6
Continuous
 62
     7
370
     9
100
AcDbLine
 10
-933.0369022382655
 20
-787.3669002862036
 30
0.0
 11
-933.0369022382655
 21
-785.866617998606
 31
0.0
  0
LINE
  5
2EC
330
1F
100
AcDbEntity
  8
D-0
  6
Continuous
 62
     7
370
     9
100
AcDbLine
 10
-933.0369022382655
 20
-785.866617998606
 30
0.0
 11
-931.5368705881991
 21
-785.866617998606
 31
0.0
  0
LINE
  5
2ED
330
1F
100
AcDbEntity
  8
D-0
  6
Continuous
 62
     7
370
     9
100
AcDbLine
 10
-931.5368705881991
 20
-785.866617998606
 30
0.0
 11
-931.5368705881991
 21
-787.3669002862036
 31
0.0
  0
LINE
  5
2EE
330
1F
100
AcDbEntity
  8
D-0
  6
Continuous
 62
     7
370
     9
100
AcDbLine
 10
-931.5368705881991
 20
-787.3669002862036
 30
0.0
 11
-933.0369022382655
 21
-787.3669002862036
 31
0.0
  0
LINE
  5
2EF
330
1F
100
AcDbEntity
  8
D-0
  6
Continuous
 62
     7
370
     9
100
AcDbLine
 10
-957.7804869307437
 20
-813.2521770806372
 30
0.0
 11
-957.7804869307437
 21
-811.7518947930396
 31
0.0
  0
LINE
  5
2F0
330
1F
100
AcDbEntity
  8
D-0
  6
Continuous
 62
     7
370
     9
100
AcDbLine
 10
-957.7804869307437
 20
-811.7518947930396
 30
0.0
 11
-956.2804573668399
 21
-811.7518947930396
 31
0.0
  0
LINE
  5
2F1
330
1F
100
AcDbEntity
  8
D-0
  6
Continuous
 62
     7
370
     9
100
AcDbLine
 10
-956.2804573668399
 20
-811.7518947930396
 30
0.0
 11
-956.2804573668399
 21
-813.2521770806372
 31
0.0
  0
LINE
  5
2F2
330
1F
100
AcDbEntity
  8
D-0
  6
Continuous
 62
     7
370
     9
100
AcDbLine
 10
-956.2804573668399
 20
-813.2521770806372
 30
0.0
 11
-957.7804869307437
 21
-813.2521770806372
 31
0.0
  0
LINE
  5
2F3
330
1F
100
AcDbEntity
  8
D-0
  6
Continuous
 62
     7
370
     9
100
AcDbLine
 10
-998.1314700735965
 20
-825.0532482476294
 30
0.0
 11
-998.1314700735965
 21
-823.5529659600318
 31
0.0
  0
LINE
  5
2F4
330
1F
100
AcDbEntity
  8
D-0
  6
Continuous
 62
     7
370
     9
100
AcDbLine
 10
-998.1314700735965
 20
-823.5529659600318
 30
0.0
 11
-996.6314357413211
 21
-823.5529659600318
 31
0.0
  0
LINE
  5
2F5
330
1F
100
AcDbEntity
  8
D-0
  6
Continuous
 62
     7
370
     9
100
AcDbLine
 10
-996.6314357413211
 20
-823.5529659600318
 30
0.0
 11
-996.6314357413211
 21
-825.0532482476294
 31
0.0
  0
LINE
  5
2F6
330
1F
100
AcDbEntity
  8
D-0
  6
Continuous
 62
     7
370
     9
100
AcDbLine
 10
-996.6314357413211
 20
-825.0532482476294
 30
0.0
 11
-998.1314700735965
 21
-825.0532482476294
 31
0.0
  0
LINE
  5
2F7
330
1F
100
AcDbEntity
  8
D-0
  6
Continuous
 62
     7
370
     9
100
AcDbLine
 10
-1045.334658016101
 20
-822.7691601128638
 30
0.0
 11
-1045.334658016101
 21
-821.2688778252661
 31
0.0
  0
LINE
  5
2F8
330
1F
100
AcDbEntity
  8
D-0
  6
Continuous
 62
     7
370
     9
100
AcDbLine
 10
-1045.334658016101
 20
-821.2688778252661
 30
0.0
 11
-1043.834623683826
 21
-821.2688778252661
 31
0.0
  0
LINE
  5
2F9
330
1F
100
AcDbEntity
  8
D-0
  6
Continuous
 62
     7
370
     9
100
AcDbLine
 10
-1043.834623683826
 20
-821.2688778252661
 30
0.0
 11
-1043.834623683826
 21
-822.7691601128638
 31
0.0
  0
LINE
  5
2FA
330
1F
100
AcDbEntity
  8
D-0
  6
Continuous
 62
     7
370
     9
100
AcDbLine
 10
-1043.834623683826
 20
-822.7691601128638
 30
0.0
 11
-1045.334658016101
 21
-822.7691601128638
 31
0.0
  0
LINE
  5
2FB
330
1F
100
AcDbEntity
  8
D-0
  6
Continuous
 62
     7
370
     9
100
AcDbLine
 10
-1028.965725292102
 20
-851.3195370049536
 30
0.0
 11
-1028.965725292102
 21
-849.819254717356
 31
0.0
  0
LINE
  5
2FC
330
1F
100
AcDbEntity
  8
D-0
  6
Continuous
 62
     7
370
     9
100
AcDbLine
 10
-1028.965725292102
 20
-849.819254717356
 30
0.0
 11
-1027.46570049657
 21
-849.819254717356
 31
0.0
  0
LINE
  5
2FD
330
1F
100
AcDbEntity
  8
D-0
  6
Continuous
 62
     7
370
     9
100
AcDbLine
 10
-1027.46570049657
 20
-849.819254717356
 30
0.0
 11
-1027.46570049657
 21
-851.3195370049536
 31
0.0
  0
LINE
  5
2FE
330
1F
100
AcDbEntity
  8
D-0
  6
Continuous
 62
     7
370
     9
100
AcDbLine
 10
-1027.46570049657
 20
-851.3195370049536
 30
0.0
 11
-1028.965725292102
 21
-851.3195370049536
 31
0.0
  0
LINE
  5
2FF
330
1F
100
AcDbEntity
  8
D-0
  6
Continuous
 62
     7
370
     9
100
AcDbLine
 10
-977.1946948660769
 20
-849.7969768853247
 30
0.0
 11
-977.1946948660769
 21
-848.2966945977271
 31
0.0
  0
LINE
  5
300
330
1F
100
AcDbEntity
  8
D-0
  6
Continuous
 62
     7
370
     9
100
AcDbLine
 10
-977.1946948660769
 20
-848.2966945977271
 30
0.0
 11
-975.6946581496157
 21
-848.2966945977271
 31
0.0
  0
LINE
  5
301
330
1F
100
AcDbEntity
  8
D-0
  6
Continuous
 62
     7
370
     9
100
AcDbLine
 10
-975.6946581496157
 20
-848.2966945977271
 30
0.0
 11
-975.6946581496157
 21
-849.7969768853247
 31
0.0
  0
LINE
  5
302
330
1F
100
AcDbEntity
  8
D-0
  6
Continuous
 62
     7
370
     9
100
AcDbLine
 10
-975.6946581496157
 20
-849.7969768853247
 30
0.0
 11
-977.1946948660769
 21
-849.7969768853247
 31
0.0
  0
LINE
  5
303
330
1F
100
AcDbEntity
  8
D-0
  6
Continuous
 62
     7
370
     9
100
AcDbLine
 10
-939.1276997221865
 20
-849.7969768853247
 30
0.0
 11
-939.1276997221865
 21
-848.2966945977271
 31
0.0
  0
LINE
  5
304
330
1F
100
AcDbEntity
  8
D-0
  6
Continuous
 62
     7
370
     9
100
AcDbLine
 10
-939.1276997221865
 20
-848.2966945977271
 30
0.0
 11
-937.6276680721202
 21
-848.2966945977271
 31
0.0
  0
LINE
  5
305
330
1F
100
AcDbEntity
  8
D-0
  6
Continuous
 62
     7
370
     9
100
AcDbLine
 10
-937.6276680721202
 20
-848.2966945977271
 30
0.0
 11
-937.6276680721202
 21
-849.7969768853247
 31
0.0
  0
LINE
  5
306
330
1F
100
AcDbEntity
  8
D-0
  6
Continuous
 62
     7
370
     9
100
AcDbLine
 10
-937.6276680721202
 20
-849.7969768853247
 30
0.0
 11
-939.1276997221865
 21
-849.7969768853247
 31
0.0
  0
LINE
  5
307
330
1F
100
AcDbEntity
  8
D-0
  6
Continuous
 62
     7
370
     9
100
AcDbLine
 10
-882.1034568442263
 20
-666.7921017022193
 30
0.0
 11
-882.1034568442263
 21
-665.2913425774634
 31
0.0
  0
LINE
  5
308
330
1F
100
AcDbEntity
  8
D-0
  6
Continuous
 62
     7
370
     9
100
AcDbLine
 10
-882.1034568442263
 20
-665.2913425774634
 30
0.0
 11
-880.6034272803225
 21
-665.2913425774634
 31
0.0
  0
LINE
  5
309
330
1F
100
AcDbEntity
  8
D-0
  6
Continuous
 62
     7
370
     9
100
AcDbLine
 10
-880.6034272803225
 20
-665.2913425774634
 30
0.0
 11
-880.6034272803225
 21
-666.7921017022193
 31
0.0
  0
LINE
  5
30A
330
1F
100
AcDbEntity
  8
D-0
  6
Continuous
 62
     7
370
     9
100
AcDbLine
 10
-880.6034272803225
 20
-666.7921017022193
 30
0.0
 11
-882.1034568442263
 21
-666.7921017022193
 31
0.0
  0
LINE
  5
30B
330
1F
100
AcDbEntity
  8
D-6
  6
Continuous
 62
     6
370
     9
100
AcDbLine
 10
-1061.268314708606
 20
-471.8583439202368
 30
0.0
 11
-1061.268314708606
 21
-856.8584011406958
 31
0.0
  0
LINE
  5
30C
330
1F
100
AcDbEntity
  8
D-4
  6
Continuous
 62
     7
370
     9
100
AcDbLine
 10
-1061.268314708606
 20
-761.6139934868872
 30
0.0
 11
-911.2676161421695
 21
-761.6139934868872
 31
0.0
  0
LINE
  5
30D
330
1F
100
AcDbEntity
  8
D-4
  6
Continuous
 62
     7
370
     9
100
AcDbLine
 10
-1061.268314708606
 20
-915.2109478325904
 30
0.0
 11
-661.2679332388797
 21
-915.2109478325904
 31
0.0
  0
LINE
  5
30E
330
1F
100
AcDbEntity
  8
D-4
  6
Continuous
 62
     7
370
     9
100
AcDbLine
 10
-1061.268314708606
 20
-918.2109402031958
 30
0.0
 11
-1061.268314708606
 21
-876.8584011406958
 31
0.0
  0
LINE
  5
30F
330
1F
100
AcDbEntity
  8
D-4
  6
Continuous
 62
     7
370
     9
100
AcDbLine
 10
-661.2679332388797
 20
-918.2109402031958
 30
0.0
 11
-661.2679332388797
 21
-701.858820757395
 31
0.0
  0
LINE
  5
310
330
1F
100
AcDbEntity
  8
D-1
  6
Continuous
 62
     2
370
     9
100
AcDbLine
 10
-911.2681072844424
 20
-456.8585251183569
 30
0.0
 11
-911.2681072844424
 21
-356.8590496392309
 31
0.0
  0
LINE
  5
311
330
1F
100
AcDbEntity
  8
D-1
  6
Continuous
 62
     2
370
     9
100
AcDbLine
 10
-926.2679314507403
 20
-356.8590496392309
 30
0.0
 11
-911.2681072844424
 21
-356.8590496392309
 31
0.0
  0
LINE
  5
312
330
1F
100
AcDbEntity
  8
D-6
  6
Continuous
 62
     6
370
     9
100
AcDbLine
 10
-911.2681072844424
 20
-356.8590496392309
 30
0.0
 11
-496.2674373282351
 21
-356.8590496392309
 31
0.0
  0
LINE
  5
313
330
1F
100
AcDbEntity
  8
D-4
  6
Continuous
 62
     7
370
     9
100
AcDbLine
 10
-392.5054210318484
 20
-356.8590496392309
 30
0.0
 11
-392.5054210318484
 21
-681.858820757395
 31
0.0
  0
LINE
  5
314
330
1F
100
AcDbEntity
  8
D-4
  6
Continuous
 62
     7
370
     9
100
AcDbLine
 10
-389.5054286612429
 20
-356.8590496392309
 30
0.0
 11
-476.2674373282351
 21
-356.8590496392309
 31
0.0
  0
LINE
  5
315
330
1F
100
AcDbEntity
  8
D-4
  6
Continuous
 62
     7
370
     9
100
AcDbLine
 10
-389.5054286612429
 20
-681.858820757395
 30
0.0
 11
-641.2679332388797
 21
-681.858820757395
 31
0.0
  0
ARC
  5
316
330
1F
100
AcDbEntity
  8
D-1
  6
Continuous
 62
     2
370
     9
100
AcDbCircle
 10
-926.2679314507403
 20
-456.8585251183569
 30
0.0
 40
15.0
100
AcDbArc
 50
270.0
 51
0.0
  0
LWPOLYLINE
  5
317
330
1F
100
AcDbEntity
  8
D-4
  6
Continuous
 62
     7
370
     9
100
AcDbPolyline
 90
        4
 70
     1
 43
1.0
 10
-925.7669414175906
 20
-129.6876667351771
 42
0.4142135623731
 10
-926.2669414175906
 20
-129.1876667351771
 42
0.4142135623731
 10
-926.7669414175906
 20
-129.6876667351771
 42
0.4142135623731
 10
-926.2669414175906
 20
-130.1876667351771
 42
0.4142135623731
  0
LWPOLYLINE
  5
318
330
1F
100
AcDbEntity
  8
D-4
  6
Continuous
 62
     7
370
     9
100
AcDbPolyline
 90
        4
 70
     1
 43
1.0
 10
-1060.767818797962
 20
-238.4400318474817
 42
0.4142135623731
 10
-1061.267818797962
 20
-237.9400318474817
 42
0.4142135623731
 10
-1061.767818797962
 20
-238.4400318474817
 42
0.4142135623731
 10
-1061.267818797962
 20
-238.9400318474817
 42
0.4142135623731
  0
LWPOLYLINE
  5
319
330
1F
100
AcDbEntity
  8
D-4
  6
Continuous
 62
     7
370
     9
100
AcDbPolyline
 90
        4
 70
     1
 43
1.0
 10
-935.7669870761164
 20
-238.4400318474817
 42
0.4142135623731
 10
-936.2669870761164
 20
-237.9400318474817
 42
0.4142135623731
 10
-936.7669870761164
 20
-238.4400318474817
 42
0.4142135623731
 10
-936.2669870761164
 20
-238.9400318474817
 42
0.4142135623731
  0
LWPOLYLINE
  5
31A
330
1F
100
AcDbEntity
  8
D-4
  6
Continuous
 62
     7
370
     9
100
AcDbPolyline
 90
        4
 70
     1
 43
1.0
 10
-935.7669870761164
 20
-129.6876667351771
 42
0.4142135623731
 10
-936.2669870761164
 20
-129.1876667351771
 42
0.4142135623731
 10
-936.7669870761164
 20
-129.6876667351771
 42
0.4142135623731
 10
-936.2669870761164
 20
-130.1876667351771
 42
0.4142135623731
  0
LWPOLYLINE
  5
31B
330
1F
100
AcDbEntity
  8
D-4
  6
Continuous
 62
     7
370
     9
100
AcDbPolyline
 90
        4
 70
     1
 43
1.0
 10
-910.7681072844424
 20
-129.6876667351771
 42
0.4142135623731
 10
-911.2681072844424
 20
-129.1876667351771
 42
0.4142135623731
 10
-911.7681072844424
 20
-129.6876667351771
 42
0.4142135623731
 10
-911.2681072844424
 20
-130.1876667351771
 42
0.4142135623731
  0
LWPOLYLINE
  5
31C
330
1F
100
AcDbEntity
  8
D-4
  6
Continuous
 62
     7
370
     9
100
AcDbPolyline
 90
        4
 70
     1
 43
1.0
 10
-910.7681072844424
 20
-18.9919613213587
 42
0.4142135623731
 10
-911.2681072844424
 20
-18.4919613213587
 42
0.4142135623731
 10
-911.7681072844424
 20
-18.9919613213587
 42
0.4142135623731
 10
-911.2681072844424
 20
-19.4919613213587
 42
0.4142135623731
  0
LWPOLYLINE
  5
31D
330
1F
100
AcDbEntity
  8
D-4
  6
Continuous
 62
     7
370
     9
100
AcDbPolyline
 90
        4
 70
     1
 43
1.0
 10
-1060.768314708606
 20
-761.6139934868872
 42
0.4142135623731
 10
-1061.268314708606
 20
-761.1139934868872
 42
0.4142135623731
 10
-1061.768314708606
 20
-761.6139934868872
 42
0.4142135623731
 10
-1061.268314708606
 20
-762.1139934868871
 42
0.4142135623731
  0
LWPOLYLINE
  5
31E
330
1F
100
AcDbEntity
  8
D-4
  6
Continuous
 62
     7
370
     9
100
AcDbPolyline
 90
        4
 70
     1
 43
1.0
 10
-910.7676161421695
 20
-761.6139934868872
 42
0.4142135623731
 10
-911.2676161421695
 20
-761.1139934868872
 42
0.4142135623731
 10
-911.7676161421695
 20
-761.6139934868872
 42
0.4142135623731
 10
-911.2676161421695
 20
-762.1139934868871
 42
0.4142135623731
  0
LWPOLYLINE
  5
31F
330
1F
100
AcDbEntity
  8
D-4
  6
Continuous
 62
     7
370
     9
100
AcDbPolyline
 90
        4
 70
     1
 43
1.0
 10
-1060.768314708606
 20
-915.2109478325904
 42
0.4142135623731
 10
-1061.268314708606
 20
-914.7109478325904
 42
0.4142135623731
 10
-1061.768314708606
 20
-915.2109478325904
 42
0.4142135623731
 10
-1061.268314708606
 20
-915.7109478325903
 42
0.4142135623731
  0
LWPOLYLINE
  5
320
330
1F
100
AcDbEntity
  8
D-4
  6
Continuous
 62
     7
370
     9
100
AcDbPolyline
 90
        4
 70
     1
 43
1.0
 10
-660.7679332388797
 20
-915.2109478325904
 42
0.4142135623731
 10
-661.2679332388797
 20
-914.7109478325904
 42
0.4142135623731
 10
-661.7679332388797
 20
-915.2109478325904
 42
0.4142135623731
 10
-661.2679332388797
 20
-915.7109478325903
 42
0.4142135623731
  0
LWPOLYLINE
  5
321
330
1F
100
AcDbEntity
  8
D-4
  6
Continuous
 62
     7
370
     9
100
AcDbPolyline
 90
        4
 70
     1
 43
1.0
 10
-392.0054210318484
 20
-356.8590496392309
 42
0.4142135623731
 10
-392.5054210318484
 20
-356.359049639231
 42
0.4142135623731
 10
-393.0054210318484
 20
-356.8590496392309
 42
0.4142135623731
 10
-392.5054210318484
 20
-357.3590496392309
 42
0.4142135623731
  0
LWPOLYLINE
  5
322
330
1F
100
AcDbEntity
  8
D-4
  6
Continuous
 62
     7
370
     9
100
AcDbPolyline
 90
        4
 70
     1
 43
1.0
 10
-392.0054210318484
 20
-681.858820757395
 42
0.4142135623731
 10
-392.5054210318484
 20
-681.358820757395
 42
0.4142135623731
 10
-393.0054210318484
 20
-681.858820757395
 42
0.4142135623731
 10
-392.5054210318484
 20
-682.3588207573949
 42
0.4142135623731
  0
TEXT
  5
323
330
1F
100
AcDbEntity
  8
D-4
  6
Continuous
 62
     2
370
     9
100
AcDbText
 10
-963.1080168379702
 20
-119.0483343071985
 30
0.0
 40
30.48
  1
2
 41
0.9999999999999998
  7
ＭＳ ゴシック
100
AcDbText
  0
TEXT
  5
324
330
1F
100
AcDbEntity
  8
D-4
  6
Continuous
 62
     2
370
     9
100
AcDbText
 10
-897.9667538298526
 20
-119.0483343071985
 30
0.0
 40
30.48
  1
3
 41
0.9999999999999998
  7
ＭＳ ゴシック
100
AcDbText
  0
TEXT
  5
325
330
1F
100
AcDbEntity
  8
D-4
  6
Continuous
 62
     2
370
     9
100
AcDbText
 10
-1020.017065395252
 20
-227.7998220391322
 30
0.0
 40
30.48
  1
25
 41
1.0625
  7
ＭＳ ゴシック
100
AcDbText
  0
TEXT
  5
326
330
1F
100
AcDbEntity
  8
D-4
  6
Continuous
 62
     2
370
   211
100
AcDbText
 10
-696.9430856741824
 20
-435.6084488244116
 30
0.0
 40
30.48
  1
23
 50
90.0
 41
1.0625
  7
ＭＳ ゴシック
100
AcDbText
  0
TEXT
  5
327
330
1F
100
AcDbEntity
  8
D-4
  6
Continuous
 62
     2
370
     9
100
AcDbText
 10
-692.9430894888797
 20
-575.0522375993861
 30
0.0
 40
30.48
  1
6.5
 50
90.00000250447675
 41
1.083333333333334
  7
ＭＳ ゴシック
100
AcDbText
  0
TEXT
  5
328
330
1F
100
AcDbEntity
  8
D-4
  6
Continuous
 62
     2
370
     9
100
AcDbText
 10
-405.7528429068484
 20
-579.8636008196011
 30
0.0
 40
30.48
  1
55～65
 50
90.00000250447755
 41
1.104166666666667
  7
ＭＳ ゴシック
100
AcDbText
  0
LINE
  5
329
330
1F
100
AcDbEntity
  8
D-4
  6
Continuous
 62
     7
370
     9
100
AcDbLine
 10
-1061.259397853748
 20
-589.96062739802
 30
0.0
 11
-911.2592857970157
 21
-589.96062739802
 31
0.0
  0
LINE
  5
32A
330
1F
100
AcDbEntity
  8
D-4
  6
Continuous
 62
     7
370
     9
100
AcDbLine
 10
-911.2592857970157
 20
-589.96062739802
 30
0.0
 11
-741.2590640677371
 21
-589.96062739802
 31
0.0
  0
LINE
  5
32B
330
1F
100
AcDbEntity
  8
D-4
  6
Continuous
 62
     7
370
     9
100
AcDbLine
 10
-741.2590640677371
 20
-592.9606388421118
 30
0.0
 11
-741.2590640677371
 21
-508.3569572777807
 31
0.0
  0
LINE
  5
32C
330
1F
100
AcDbEntity
  8
D-4
  6
Continuous
 62
     7
370
     9
100
AcDbLine
 10
-678.3030933035769
 20
-503.3570240349829
 30
0.0
 11
-736.2590640677371
 21
-503.3570240349829
 31
0.0
  0
LINE
  5
32D
330
1F
100
AcDbEntity
  8
D-4
  6
Continuous
 62
     7
370
     9
100
AcDbLine
 10
-681.3030856741824
 20
-471.8578480095923
 30
0.0
 11
-681.3030856741824
 21
-588.6079738946021
 31
0.0
  0
LINE
  5
32E
330
1F
100
AcDbEntity
  8
D-4
  6
Continuous
 62
     7
370
     9
100
AcDbLine
 10
-911.2592857970157
 20
-592.9606388421118
 30
0.0
 11
-911.2592857970157
 21
-508.3569572777807
 31
0.0
  0
LINE
  5
32F
330
1F
100
AcDbEntity
  8
D-9
  6
Continuous
 62
     4
370
     9
100
AcDbLine
 10
-871.2591069830813
 20
-503.3570240349829
 30
0.0
 11
-756.2590640677371
 21
-503.3570240349829
 31
0.0
  0
LINE
  5
330
330
1F
100
AcDbEntity
  8
D-9
  6
Continuous
 62
     4
370
     9
100
AcDbLine
 10
-886.259178508655
 20
-488.3569572777807
 30
0.0
 11
-886.259178508655
 21
-474.3569897027075
 31
0.0
  0
LINE
  5
331
330
1F
100
AcDbEntity
  8
D-9
  6
Continuous
 62
     4
370
     9
100
AcDbLine
 10
-741.2592548026004
 20
-488.3569572777807
 30
0.0
 11
-741.2592548026004
 21
-474.3569897027075
 31
0.0
  0
LINE
  5
332
330
1F
100
AcDbEntity
  8
D-9
  6
Continuous
 62
     4
370
     9
100
AcDbLine
 10
-906.2592714919009
 20
-484.3570373864233
 30
0.0
 11
-906.2592714919009
 21
-474.3569897027075
 31
0.0
  0
LINE
  5
333
330
1F
100
AcDbEntity
  8
D-9
  6
Continuous
 62
     4
370
     9
100
AcDbLine
 10
-886.2341540945926
 20
-484.3570373864233
 30
0.0
 11
-936.2589824738114
 21
-484.3570373864233
 31
0.0
  0
LINE
  5
334
330
1F
100
AcDbEntity
  8
D-9
  6
Continuous
 62
     4
370
     9
100
AcDbLine
 10
-741.2592548026004
 20
-474.3569897027075
 30
0.0
 11
-936.2589824738114
 21
-474.3569897027075
 31
0.0
  0
LINE
  5
335
330
1F
100
AcDbEntity
  8
D-9
  6
Continuous
 62
     3
370
     9
100
AcDbLine
 10
-1036.259312023059
 20
-471.8583439202368
 30
0.0
 11
-1036.259312023059
 21
-494.3583248467505
 31
0.0
  0
LINE
  5
336
330
1F
100
AcDbEntity
  8
D-9
  6
Continuous
 62
     3
370
     9
100
AcDbLine
 10
-936.2589824738114
 20
-494.3583248467505
 30
0.0
 11
-1036.259312023059
 21
-494.3583248467505
 31
0.0
  0
LINE
  5
337
330
1F
100
AcDbEntity
  8
D-9
  6
Continuous
 62
     3
370
     9
100
AcDbLine
 10
-936.2589824738114
 20
-471.8583439202368
 30
0.0
 11
-1036.259312023059
 21
-471.8583439202368
 31
0.0
  0
LINE
  5
338
330
1F
100
AcDbEntity
  8
D-9
  6
Continuous
 62
     2
370
     9
100
AcDbLine
 10
-972.5094121588626
 20
-496.8569706292212
 30
0.0
 11
-972.5094121588626
 21
-494.3583248467505
 31
0.0
  0
LINE
  5
339
330
1F
100
AcDbEntity
  8
D-9
  6
Continuous
 62
     2
370
     9
100
AcDbLine
 10
-981.2601226462283
 20
-504.356379351145
 30
0.0
 11
-972.5094121588626
 21
-496.8569706292212
 31
0.0
  0
LINE
  5
33A
330
1F
100
AcDbEntity
  8
D-9
  6
Continuous
 62
     2
370
     9
100
AcDbLine
 10
-991.2590402258792
 20
-504.356379351145
 30
0.0
 11
-981.2601226462283
 21
-504.356379351145
 31
0.0
  0
LINE
  5
33B
330
1F
100
AcDbEntity
  8
D-9
  6
Continuous
 62
     2
370
     9
100
AcDbLine
 10
-1000.009502757923
 20
-496.8569706292212
 30
0.0
 11
-991.2590402258792
 21
-504.356379351145
 31
0.0
  0
LINE
  5
33C
330
1F
100
AcDbEntity
  8
D-9
  6
Continuous
 62
     2
370
     9
100
AcDbLine
 10
-1000.009502757923
 20
-496.8569706292212
 30
0.0
 11
-1000.009502757923
 21
-494.3583248467505
 31
0.0
  0
LINE
  5
33D
330
1F
100
AcDbEntity
  8
D-9
  6
Continuous
 62
     2
370
     9
100
AcDbLine
 10
-1000.009502757923
 20
-496.8569706292212
 30
0.0
 11
-972.5094121588626
 21
-496.8569706292212
 31
0.0
  0
LINE
  5
33E
330
1F
100
AcDbEntity
  8
D-9
  6
Continuous
 62
     3
370
     9
100
AcDbLine
 10
-936.2589824738114
 20
-471.8583439202368
 30
0.0
 11
-936.2589824738114
 21
-494.3583248467505
 31
0.0
  0
LINE
  5
33F
330
1F
100
AcDbEntity
  8
D-9
  6
Continuous
 62
     3
370
     9
100
AcDbLine
 10
-936.2589824738114
 20
-481.8583439202368
 30
0.0
 11
-1036.259312023059
 21
-481.8583439202368
 31
0.0
  0
LINE
  5
340
330
1F
100
AcDbEntity
  8
D-9
  6
JWW_DASHED2
 62
     3
370
     9
100
AcDbLine
 10
-936.2589824738114
 20
-484.3583248467505
 30
0.0
 11
-1036.259312023059
 21
-484.3583248467505
 31
0.0
  0
LINE
  5
341
330
1F
100
AcDbEntity
  8
D-9
  6
JWW_CENTER1
 62
     4
370
     9
100
AcDbLine
 10
-986.259145130054
 20
-512.0973442406714
 30
0.0
 11
-986.259145130054
 21
-471.8583439202368
 31
0.0
  0
ARC
  5
342
330
1F
100
AcDbEntity
  8
D-9
  6
Continuous
 62
     4
370
     9
100
AcDbCircle
 10
-871.2591069830813
 20
-488.3569572777807
 30
0.0
 40
15.00000238418579
100
AcDbArc
 50
180.0
 51
270.0
  0
ARC
  5
343
330
1F
100
AcDbEntity
  8
D-9
  6
Continuous
 62
     4
370
     9
100
AcDbCircle
 10
-756.2590640677371
 20
-488.3569572777807
 30
0.0
 40
15.00000238418579
100
AcDbArc
 50
270.0
 51
0.0
  0
LWPOLYLINE
  5
344
330
1F
100
AcDbEntity
  8
D-4
  6
Continuous
 62
     7
370
     9
100
AcDbPolyline
 90
        4
 70
     1
 43
1.0
 10
-1060.759397853748
 20
-589.96062739802
 42
0.4142135623731
 10
-1061.259397853748
 20
-589.46062739802
 42
0.4142135623731
 10
-1061.759397853748
 20
-589.96062739802
 42
0.4142135623731
 10
-1061.259397853748
 20
-590.4606273980199
 42
0.4142135623731
  0
LWPOLYLINE
  5
345
330
1F
100
AcDbEntity
  8
D-4
  6
Continuous
 62
     7
370
     9
100
AcDbPolyline
 90
        4
 70
     1
 43
1.0
 10
-910.7592857970157
 20
-589.96062739802
 42
0.4142135623731
 10
-911.2592857970157
 20
-589.46062739802
 42
0.4142135623731
 10
-911.7592857970157
 20
-589.96062739802
 42
0.4142135623731
 10
-911.2592857970157
 20
-590.4606273980199
 42
0.4142135623731
  0
LWPOLYLINE
  5
346
330
1F
100
AcDbEntity
  8
D-4
  6
Continuous
 62
     7
370
     9
100
AcDbPolyline
 90
        4
 70
     1
 43
1.0
 10
-740.7590640677371
 20
-589.96062739802
 42
0.4142135623731
 10
-741.2590640677371
 20
-589.46062739802
 42
0.4142135623731
 10
-741.7590640677371
 20
-589.96062739802
 42
0.4142135623731
 10
-741.2590640677371
 20
-590.4606273980199
 42
0.4142135623731
  0
LWPOLYLINE
  5
347
330
1F
100
AcDbEntity
  8
D-4
  6
Continuous
 62
     7
370
     9
100
AcDbPolyline
 90
        4
 70
     1
 43
1.0
 10
-680.8030856741824
 20
-503.3570240349829
 42
0.4142135623731
 10
-681.3030856741824
 20
-502.8570240349829
 42
0.4142135623731
 10
-681.8030856741824
 20
-503.3570240349829
 42
0.4142135623731
 10
-681.3030856741824
 20
-503.8570240349828
 42
0.4142135623731
  0
TEXT
  5
348
330
1F
100
AcDbEntity
  8
D-4
  6
Continuous
 62
     2
370
     9
100
AcDbText
 10
-1007.509340633289
 20
-578.3206235833228
 30
0.0
 40
30.48
  1
30
 41
1.0625
  7
ＭＳ ゴシック
100
AcDbText
  0
TEXT
  5
349
330
1F
100
AcDbEntity
  8
D-4
  6
Continuous
 62
     2
370
     9
100
AcDbText
 10
-900.893093933002
 20
-578.3206235833228
 30
0.0
 40
30.48
  1
34
 41
1.0625
  7
ＭＳ ゴシック
100
AcDbText
  0
TEXT
  5
34A
330
1F
100
AcDbEntity
  8
D-4
  6
Continuous
 62
     2
370
     9
100
AcDbText
 10
-1052.517965425388
 20
-749.066966553458
 30
0.0
 40
30.48
  1
25～30
 41
1.104166666666667
  7
ＭＳ ゴシック
100
AcDbText
  0
LINE
  5
34B
330
1F
100
AcDbEntity
  8
D-4
  6
Continuous
 62
     7
370
     9
100
AcDbLine
 10
-877.2571509970584
 20
-471.8578480095923
 30
0.0
 11
-678.3025210989871
 21
-471.8578480095923
 31
0.0
  0
LWPOLYLINE
  5
34C
330
1F
100
AcDbEntity
  8
D-4
  6
Continuous
 62
     7
370
     9
100
AcDbPolyline
 90
        4
 70
     1
 43
1.0
 10
-680.8030856741824
 20
-471.8578480095923
 42
0.4142135623731
 10
-681.3030856741824
 20
-471.3578480095923
 42
0.4142135623731
 10
-681.8030856741824
 20
-471.8578480095923
 42
0.4142135623731
 10
-681.3030856741824
 20
-472.3578480095922
 42
0.4142135623731
  0
LINE
  5
34D
330
1F
100
AcDbEntity
  8
D-4
  6
Continuous
 62
     7
370
     9
100
AcDbLine
 10
-681.3030856741824
 20
-471.8578480095923
 30
0.0
 11
-681.3030856741824
 21
-356.8590496392309
 31
0.0
  0
LWPOLYLINE
  5
34E
330
1F
100
AcDbEntity
  8
D-4
  6
Continuous
 62
     7
370
     9
100
AcDbPolyline
 90
        4
 70
     1
 43
1.0
 10
-680.8030856741824
 20
-356.8590496392309
 42
0.4142135623731
 10
-681.3030856741824
 20
-356.359049639231
 42
0.4142135623731
 10
-681.8030856741824
 20
-356.8590496392309
 42
0.4142135623731
 10
-681.3030856741824
 20
-357.3590496392309
 42
0.4142135623731
  0
TEXT
  5
34F
330
1F
100
AcDbEntity
  8
D-4
  6
Continuous
 62
     2
370
     9
100
AcDbText
 10
-929.1357046259799
 20
-906.3016378350318
 30
0.0
 40
30.48
  1
75～80
 41
1.104166666666667
  7
ＭＳ ゴシック
100
AcDbText
  0
LINE
  5
350
330
1F
100
AcDbEntity
  8
D-5
  6
Continuous
 62
     7
370
     9
100
AcDbLine
 10
-893.1482738150515
 20
-474.3569897027075
 30
0.0
 11
-879.3365853918948
 21
-453.5185669274389
 31
0.0
  0
LINE
  5
351
330
1F
100
AcDbEntity
  8
D-5
  6
Continuous
 62
     7
370
     9
100
AcDbLine
 10
-893.1482738150515
 20
-474.3569897027075
 30
0.0
 11
-874.4145959509768
 21
-457.8028820366919
 31
0.0
  0
LINE
  5
352
330
1F
100
AcDbEntity
  8
D-5
  6
Continuous
 62
     7
370
     9
100
AcDbLine
 10
-718.5991424216189
 20
-273.8095615716028
 30
0.0
 11
-893.1482738150515
 21
-474.3569897027075
 31
0.0
  0
TEXT
  5
353
330
1F
100
AcDbEntity
  8
D-5
  6
Continuous
 62
     7
370
     9
100
AcDbText
 10
-716.7913172168093
 20
-158.6313685627613
 30
0.0
 40
22.86
  1
ステンレス製受枠ＲＬ－２０
 50
359.9999368586928
 41
1.153846153846155
  7
ＭＳ ゴシック
100
AcDbText
  0
LINE
  5
354
330
1F
100
AcDbEntity
  8
D-5
  6
Continuous
 62
     7
370
     9
100
AcDbLine
 10
-728.005429066913
 20
-78.2414297878367
 30
0.0
 11
-970.5043652989406
 21
-356.8587444634497
 31
0.0
  0
LINE
  5
355
330
1F
100
AcDbEntity
  8
D-5
  6
Continuous
 62
     7
370
     9
100
AcDbLine
 10
-970.5043652989406
 20
-356.8587444634497
 30
0.0
 11
-956.6936686970729
 21
-336.0208134265005
 31
0.0
  0
LINE
  5
356
330
1F
100
AcDbEntity
  8
D-5
  6
Continuous
 62
     7
370
     9
100
AcDbLine
 10
-970.5043652989406
 20
-356.8587444634497
 30
0.0
 11
-951.7706898190517
 21
-340.3051327080786
 31
0.0
  0
LINE
  5
357
330
1F
100
AcDbEntity
  8
D-5
  6
Continuous
 62
     7
370
     9
100
AcDbLine
 10
-721.1787107417257
 20
-167.6203369160302
 30
0.0
 11
-266.5816470431645
 21
-167.6203369160302
 31
0.0
  0
LINE
  5
358
330
1F
100
AcDbEntity
  8
D-5
  6
Continuous
 62
     7
370
     9
100
AcDbLine
 10
-911.2681215895572
 20
-386.0221246583828
 30
0.0
 11
-897.4574249876895
 21
-365.1841936214336
 31
0.0
  0
LINE
  5
359
330
1F
100
AcDbEntity
  8
D-5
  6
Continuous
 62
     7
370
     9
100
AcDbLine
 10
-721.1787107417257
 20
-167.6203369160302
 30
0.0
 11
-911.2681215895572
 21
-386.0221246583828
 31
0.0
  0
LINE
  5
35A
330
1F
100
AcDbEntity
  8
D-5
  6
Continuous
 62
     7
370
     9
100
AcDbLine
 10
-911.2681215895572
 20
-386.0221246583828
 30
0.0
 11
-892.5344461096682
 21
-369.4685129030117
 31
0.0
  0
TEXT
  5
35B
330
1F
100
AcDbEntity
  8
D-5
  6
Continuous
 62
     7
370
     9
100
AcDbText
 10
-704.9549049033084
 20
-264.920671801095
 30
0.0
 40
22.86
  1
アンカー
 41
1.125
  7
ＭＳ ゴシック
100
AcDbText
  0
LINE
  5
35C
330
1F
100
AcDbEntity
  8
D-5
  6
Continuous
 62
     7
370
     9
100
AcDbLine
 10
-718.5991424216189
 20
-273.8095615716028
 30
0.0
 11
-96.45449579750391
 21
-273.8095615716028
 31
0.0
  0
LINE
  5
35D
330
1F
100
AcDbEntity
  8
D-6
  6
Continuous
 62
     6
370
     9
100
AcDbLine
 10
-768.7590259207644
 20
-681.858820757395
 30
0.0
 11
-768.7590259207644
 21
-503.3570240349829
 31
0.0
  0
LINE
  5
35E
330
1F
100
AcDbEntity
  8
D-6
  6
Continuous
 62
     6
370
     9
100
AcDbLine
 10
-813.7594836844363
 20
-681.858820757395
 30
0.0
 11
-813.7594836844363
 21
-503.3570240349829
 31
0.0
  0
LINE
  5
35F
330
1F
100
AcDbEntity
  8
D-6
  6
Continuous
 62
     6
370
     9
100
AcDbLine
 10
-813.7594836844363
 20
-474.3569897027075
 30
0.0
 11
-813.7594836844363
 21
-439.3569897027075
 31
0.0
  0
LINE
  5
360
330
1F
100
AcDbEntity
  8
D-6
  6
Continuous
 62
     6
370
     9
100
AcDbLine
 10
-768.7590259207644
 20
-474.3569897027075
 30
0.0
 11
-768.7590259207644
 21
-439.3569897027075
 31
0.0
  0
LINE
  5
361
330
1F
100
AcDbEntity
  8
D-6
  6
Continuous
 62
     6
370
     9
100
AcDbLine
 10
-813.7594836844363
 20
-439.3569897027075
 30
0.0
 11
-768.7590259207644
 21
-439.3569897027075
 31
0.0
  0
LINE
  5
362
330
1F
100
AcDbEntity
  8
D-6
  6
JWW_CENTER2
 62
     6
370
     9
100
AcDbLine
 10
-791.2592548026004
 20
-427.0435951561987
 30
0.0
 11
-791.2592548026004
 21
-795.191340288645
 31
0.0
  0
LINE
  5
363
330
1F
100
AcDbEntity
  8
D-6
  6
JWW_DASHED3
 62
     6
370
     9
100
AcDbLine
 10
-813.7594836844363
 20
-784.3584392876685
 30
0.0
 11
-813.7594836844363
 21
-681.858820757395
 31
0.0
  0
LINE
  5
364
330
1F
100
AcDbEntity
  8
D-6
  6
JWW_DASHED3
 62
     6
370
     9
100
AcDbLine
 10
-768.7590259207644
 20
-681.858820757395
 30
0.0
 11
-768.7590259207644
 21
-784.3584392876685
 31
0.0
  0
TEXT
  5
365
330
1F
100
AcDbEntity
  8
D-5
  6
Continuous
 62
     7
370
     9
100
AcDbText
 10
-608.4818573843421
 20
-772.8970268988835
 30
0.0
 40
22.86
  1
差筋φ9程度
 41
1.136363636363636
  7
ＭＳ ゴシック
100
AcDbText
  0
LINE
  5
366
330
1F
100
AcDbEntity
  8
D-5
  6
Continuous
 62
     7
370
     9
100
AcDbLine
 10
-608.9238091360511
 20
-784.5907682013737
 30
0.0
 11
-420.5995987732302
 21
-784.5907682013737
 31
0.0
  0
LINE
  5
367
330
1F
100
AcDbEntity
  8
D-5
  6
Continuous
 62
     7
370
     9
100
AcDbLine
 10
-768.7674373282351
 20
-624.7471400091874
 30
0.0
 11
-608.9238091360511
 21
-784.5907682013737
 31
0.0
  0
LINE
  5
368
330
1F
100
AcDbEntity
  8
D-5
  6
Continuous
 62
     7
370
     9
100
AcDbLine
 10
-768.7674373282351
 20
-624.7471400091874
 30
0.0
 11
-753.5484016030176
 21
-644.5809735164696
 31
0.0
  0
LINE
  5
369
330
1F
100
AcDbEntity
  8
D-5
  6
Continuous
 62
     7
370
     9
100
AcDbLine
 10
-768.7674373282351
 20
-624.7471400091874
 30
0.0
 11
-748.933603820953
 21
-639.9661757344049
 31
0.0
  0
LINE
  5
36A
330
1F
100
AcDbEntity
  8
D-5
  6
Continuous
 62
     7
370
     9
100
AcDbLine
 10
-728.005429066913
 20
-78.2414297878367
 30
0.0
 11
200.7320371441538
 21
-78.2414297878367
 31
0.0
  0
TEXT
  5
36B
330
1F
100
AcDbEntity
  8
D-5
  6
Continuous
 62
     7
370
     9
100
AcDbText
 10
-729.1544445388263
 20
-33.01524227699277
 30
0.0
 40
22.86
  1
ステンレス製　細目ノンスリップタイプ（ローレット模様）
 41
1.160493827160494
  7
ＭＳ ゴシック
100
AcDbText
  0
TEXT
  5
36C
330
1F
100
AcDbEntity
  8
D-5
  6
Continuous
 62
     7
370
     9
100
AcDbText
 10
-729.1544481533289
 20
-65.72016781410372
 30
0.0
 40
22.86
  1
グレーチング（すきま6mm）ＺＱーＨ－２０
 50
0.00004895879748
 41
1.158119658119658
  7
ＭＳ ゴシック
100
AcDbText
  0
TEXT
  5
36D
330
1F
100
AcDbEntity
  8
D-5
  6
Continuous
 62
     7
370
     9
100
AcDbText
 10
-704.9549049033084
 20
-304.2385943932581
 30
0.0
 40
22.86
  1
ｔ＝２．０（ＳＥＣＣまたはＳＧＨＣ）
 41
1.157407407407407
  7
ＭＳ ゴシック
100
AcDbText
  0
LINE
  5
36E
330
1F
100
AcDbEntity
  8
C-A
  6
Continuous
 62
     3
370
     9
100
AcDbLine
 10
-958.3766985835805
 20
629.4919004473845
 30
0.0
 11
-952.3849102864947
 21
629.4919004473845
 31
0.0
  0
LINE
  5
36F
330
1F
100
AcDbEntity
  8
C-A
  6
Continuous
 62
     3
370
     9
100
AcDbLine
 10
-916.3864757557724
 20
629.4919004473845
 30
0.0
 11
-910.3858126170479
 21
629.4919004473845
 31
0.0
  0
LINE
  5
370
330
1F
100
AcDbEntity
  8
C-A
  6
Continuous
 62
     3
370
     9
100
AcDbLine
 10
-902.3859594313427
 20
629.4919004473845
 30
0.0
 11
-896.3862860519083
 21
629.4919004473845
 31
0.0
  0
LINE
  5
371
330
1F
100
AcDbEntity
  8
C-A
  6
Continuous
 62
     3
370
     9
100
AcDbLine
 10
-888.3865565861146
 20
629.4919004473845
 30
0.0
 11
-882.3858934473901
 21
629.4919004473845
 31
0.0
  0
LINE
  5
372
330
1F
100
AcDbEntity
  8
C-A
  6
Continuous
 62
     3
370
     9
100
AcDbLine
 10
-874.3860402616849
 20
629.4919004473845
 30
0.0
 11
-868.386490602162
 21
629.4919004473845
 31
0.0
  0
LINE
  5
373
330
1F
100
AcDbEntity
  8
C-A
  6
Continuous
 62
     3
370
     9
100
AcDbLine
 10
-860.3865136965453
 20
629.4919004473845
 30
0.0
 11
-854.3864691573771
 21
629.4919004473845
 31
0.0
  0
LINE
  5
374
330
1F
100
AcDbEntity
  8
C-A
  6
Continuous
 62
     3
370
     9
100
AcDbLine
 10
-846.3861210920265
 20
629.4919004473845
 30
0.0
 11
-840.3864477125927
 21
629.4919004473845
 31
0.0
  0
LINE
  5
375
330
1F
100
AcDbEntity
  8
C-A
  6
Continuous
 62
     3
370
     9
100
AcDbLine
 10
-832.3867182467984
 20
629.4919004473845
 30
0.0
 11
-826.3865499877193
 21
629.4919004473845
 31
0.0
  0
LINE
  5
376
330
1F
100
AcDbEntity
  8
C-A
  6
Continuous
 62
     3
370
     9
100
AcDbLine
 10
-818.3866968020141
 20
629.4919004473845
 30
0.0
 11
-812.3860336632896
 21
629.4919004473845
 31
0.0
  0
LINE
  5
377
330
1F
100
AcDbEntity
  8
C-A
  6
Continuous
 62
     3
370
     9
100
AcDbLine
 10
-804.3861804775844
 20
629.4919004473845
 30
0.0
 11
-798.3866308180615
 21
629.4919004473845
 31
0.0
  0
LINE
  5
378
330
1F
100
AcDbEntity
  8
C-A
  6
Continuous
 62
     3
370
     9
100
AcDbLine
 10
-790.3867776323563
 20
629.4919004473845
 30
0.0
 11
-784.3861144936312
 21
629.4919004473845
 31
0.0
  0
LINE
  5
379
330
1F
100
AcDbEntity
  8
C-A
  6
Continuous
 62
     3
370
     9
100
AcDbLine
 10
-776.386261307926
 20
629.4919004473845
 30
0.0
 11
-770.3867116484037
 21
629.4919004473845
 31
0.0
  0
LINE
  5
37A
330
1F
100
AcDbEntity
  8
C-A
  6
Continuous
 62
     3
370
     9
100
AcDbLine
 10
-762.3868584626979
 20
629.4919004473845
 30
0.0
 11
-756.3861953239734
 21
629.4919004473845
 31
0.0
  0
LINE
  5
37B
330
1F
100
AcDbEntity
  8
C-A
  6
Continuous
 62
     3
370
     9
100
AcDbLine
 10
-748.3873318975589
 20
629.4919004473845
 30
0.0
 11
-742.3871636384791
 21
629.4919004473845
 31
0.0
  0
LINE
  5
37C
330
1F
100
AcDbEntity
  8
C-A
  6
Continuous
 62
     3
370
     9
100
AcDbLine
 10
-734.3869392930401
 20
629.4919004473845
 30
0.0
 11
-728.3872659136063
 21
629.4919004473845
 31
0.0
  0
LINE
  5
37D
330
1F
100
AcDbEntity
  8
C-A
  6
Continuous
 62
     3
370
     9
100
AcDbLine
 10
-720.3879076075464
 20
629.4919004473845
 30
0.0
 11
-714.3873681887328
 21
629.4919004473845
 31
0.0
  0
LINE
  5
37E
330
1F
100
AcDbEntity
  8
C-A
  6
Continuous
 62
     3
370
     9
100
AcDbLine
 10
-706.3878861627614
 20
629.4919004473845
 30
0.0
 11
-700.3878416235932
 21
629.4919004473845
 31
0.0
  0
LINE
  5
37F
330
1F
100
AcDbEntity
  8
C-A
  6
Continuous
 62
     3
370
     9
100
AcDbLine
 10
-692.387988437888
 20
629.4919004473845
 30
0.0
 11
-686.3873252991635
 21
629.4919004473845
 31
0.0
  0
LINE
  5
380
330
1F
100
AcDbEntity
  8
C-A
  6
Continuous
 62
     3
370
     9
100
AcDbLine
 10
-678.3885855926604
 20
629.4919004473845
 30
0.0
 11
-672.3879224539354
 21
629.4919004473845
 31
0.0
  0
LINE
  5
381
330
1F
100
AcDbEntity
  8
C-A
  6
Continuous
 62
     3
370
     9
100
AcDbLine
 10
-664.3880692682302
 20
629.4919004473845
 30
0.0
 11
-658.3883958887964
 21
629.4919004473845
 31
0.0
  0
LINE
  5
382
330
1F
100
AcDbEntity
  8
C-A
  6
Continuous
 62
     3
370
     9
100
AcDbLine
 10
-650.3885427030912
 20
629.4919004473845
 30
0.0
 11
-644.3884981639229
 21
629.4919004473845
 31
0.0
  0
LINE
  5
383
330
1F
100
AcDbEntity
  8
C-A
  6
Continuous
 62
     3
370
     9
100
AcDbLine
 10
-636.389139857863
 20
629.4919004473845
 30
0.0
 11
-630.3889715987833
 21
629.4919004473845
 31
0.0
  0
LINE
  5
384
330
1F
100
AcDbEntity
  8
C-A
  6
Continuous
 62
     3
370
     9
100
AcDbLine
 10
-622.3891184130781
 20
629.4919004473845
 30
0.0
 11
-616.3885789942651
 21
629.4919004473845
 31
0.0
  0
LINE
  5
385
330
1F
100
AcDbEntity
  8
C-A
  6
Continuous
 62
     3
370
     9
100
AcDbLine
 10
-608.38971556785
 20
629.4919004473845
 30
0.0
 11
-602.3890524291255
 21
629.4919004473845
 31
0.0
  0
LINE
  5
386
330
1F
100
AcDbEntity
  8
C-A
  6
Continuous
 62
     3
370
     9
100
AcDbLine
 10
-594.3891992434203
 20
629.4919004473845
 30
0.0
 11
-588.3895258639859
 21
629.4919004473845
 31
0.0
  0
LINE
  5
387
330
1F
100
AcDbEntity
  8
C-A
  6
Continuous
 62
     3
370
     9
100
AcDbLine
 10
-930.3858786010005
 20
629.4919004473845
 30
0.0
 11
-924.3863289414776
 21
629.4919004473845
 31
0.0
  0
LINE
  5
388
330
1F
100
AcDbEntity
  8
C-A
  6
Continuous
 62
     3
370
     9
100
AcDbLine
 10
-944.3849102864948
 20
629.4919004473845
 30
0.0
 11
-938.3852369070604
 21
629.4919004473845
 31
0.0
  0
LINE
  5
389
330
1F
100
AcDbEntity
  8
C-A
  6
Continuous
 62
     3
370
     9
100
AcDbLine
 10
-580.3897963981922
 20
629.4919004473845
 30
0.0
 11
-574.3856691019505
 21
629.4919004473845
 31
0.0
  0
LINE
  5
38A
330
1F
100
AcDbEntity
  8
C-A
  6
Continuous
 62
     3
370
     9
100
AcDbLine
 10
-566.3942288702151
 20
629.4919004473845
 30
0.0
 11
-560.3897304142396
 21
629.4919004473845
 31
0.0
  0
LINE
  5
38B
330
1F
100
AcDbEntity
  8
C-A
  6
Continuous
 62
     3
370
     9
100
AcDbLine
 10
-552.3981664625927
 20
629.4919004473845
 30
0.0
 11
-546.3936680066172
 21
629.4919004473845
 31
0.0
  0
LINE
  5
38C
330
1F
100
AcDbEntity
  8
C-A
  6
Continuous
 62
     3
370
     9
100
AcDbLine
 10
-538.4022277748812
 20
629.4919004473845
 30
0.0
 11
-532.3971107193495
 21
629.4919004473845
 31
0.0
  0
LINE
  5
38D
330
1F
100
AcDbEntity
  8
C-A
  6
Continuous
 62
     3
370
     9
100
AcDbLine
 10
-958.3766985835805
 20
722.3922303671484
 30
0.0
 11
-952.3849102864947
 21
722.3922303671484
 31
0.0
  0
LINE
  5
38E
330
1F
100
AcDbEntity
  8
C-A
  6
Continuous
 62
     3
370
     9
100
AcDbLine
 10
-916.3864757557724
 20
722.3922303671484
 30
0.0
 11
-910.3858126170479
 21
722.3922303671484
 31
0.0
  0
LINE
  5
38F
330
1F
100
AcDbEntity
  8
C-A
  6
Continuous
 62
     3
370
     9
100
AcDbLine
 10
-902.3859594313427
 20
722.3922303671484
 30
0.0
 11
-896.3862860519083
 21
722.3922303671484
 31
0.0
  0
LINE
  5
390
330
1F
100
AcDbEntity
  8
C-A
  6
Continuous
 62
     3
370
     9
100
AcDbLine
 10
-888.3865565861146
 20
722.3922303671484
 30
0.0
 11
-882.3858934473901
 21
722.3922303671484
 31
0.0
  0
LINE
  5
391
330
1F
100
AcDbEntity
  8
C-A
  6
Continuous
 62
     3
370
     9
100
AcDbLine
 10
-874.3860402616849
 20
722.3922303671484
 30
0.0
 11
-868.386490602162
 21
722.3922303671484
 31
0.0
  0
LINE
  5
392
330
1F
100
AcDbEntity
  8
C-A
  6
Continuous
 62
     3
370
     9
100
AcDbLine
 10
-860.3865136965453
 20
722.3922303671484
 30
0.0
 11
-854.3864691573771
 21
722.3922303671484
 31
0.0
  0
LINE
  5
393
330
1F
100
AcDbEntity
  8
C-A
  6
Continuous
 62
     3
370
     9
100
AcDbLine
 10
-846.3861210920265
 20
722.3922303671484
 30
0.0
 11
-840.3864477125927
 21
722.3922303671484
 31
0.0
  0
LINE
  5
394
330
1F
100
AcDbEntity
  8
C-A
  6
Continuous
 62
     3
370
     9
100
AcDbLine
 10
-832.3867182467984
 20
722.3922303671484
 30
0.0
 11
-826.3865499877193
 21
722.3922303671484
 31
0.0
  0
LINE
  5
395
330
1F
100
AcDbEntity
  8
C-A
  6
Continuous
 62
     3
370
     9
100
AcDbLine
 10
-818.3866968020141
 20
722.3922303671484
 30
0.0
 11
-812.3860336632896
 21
722.3922303671484
 31
0.0
  0
LINE
  5
396
330
1F
100
AcDbEntity
  8
C-A
  6
Continuous
 62
     3
370
     9
100
AcDbLine
 10
-804.3861804775844
 20
722.3922303671484
 30
0.0
 11
-798.3866308180615
 21
722.3922303671484
 31
0.0
  0
LINE
  5
397
330
1F
100
AcDbEntity
  8
C-A
  6
Continuous
 62
     3
370
     9
100
AcDbLine
 10
-790.3867776323563
 20
722.3922303671484
 30
0.0
 11
-784.3861144936312
 21
722.3922303671484
 31
0.0
  0
LINE
  5
398
330
1F
100
AcDbEntity
  8
C-A
  6
Continuous
 62
     3
370
     9
100
AcDbLine
 10
-776.386261307926
 20
722.3922303671484
 30
0.0
 11
-770.3867116484037
 21
722.3922303671484
 31
0.0
  0
LINE
  5
399
330
1F
100
AcDbEntity
  8
C-A
  6
Continuous
 62
     3
370
     9
100
AcDbLine
 10
-762.3868584626979
 20
722.3922303671484
 30
0.0
 11
-756.3861953239734
 21
722.3922303671484
 31
0.0
  0
LINE
  5
39A
330
1F
100
AcDbEntity
  8
C-A
  6
Continuous
 62
     3
370
     9
100
AcDbLine
 10
-748.3873318975589
 20
722.3922303671484
 30
0.0
 11
-742.3871636384791
 21
722.3922303671484
 31
0.0
  0
LINE
  5
39B
330
1F
100
AcDbEntity
  8
C-A
  6
Continuous
 62
     3
370
     9
100
AcDbLine
 10
-734.3869392930401
 20
722.3922303671484
 30
0.0
 11
-728.3872659136063
 21
722.3922303671484
 31
0.0
  0
LINE
  5
39C
330
1F
100
AcDbEntity
  8
C-A
  6
Continuous
 62
     3
370
     9
100
AcDbLine
 10
-720.3879076075464
 20
722.3922303671484
 30
0.0
 11
-714.3873681887328
 21
722.3922303671484
 31
0.0
  0
LINE
  5
39D
330
1F
100
AcDbEntity
  8
C-A
  6
Continuous
 62
     3
370
     9
100
AcDbLine
 10
-706.3878861627614
 20
722.3922303671484
 30
0.0
 11
-700.3878416235932
 21
722.3922303671484
 31
0.0
  0
LINE
  5
39E
330
1F
100
AcDbEntity
  8
C-A
  6
Continuous
 62
     3
370
     9
100
AcDbLine
 10
-692.387988437888
 20
722.3922303671484
 30
0.0
 11
-686.3873252991635
 21
722.3922303671484
 31
0.0
  0
LINE
  5
39F
330
1F
100
AcDbEntity
  8
C-A
  6
Continuous
 62
     3
370
     9
100
AcDbLine
 10
-678.3885855926604
 20
722.3922303671484
 30
0.0
 11
-672.3879224539354
 21
722.3922303671484
 31
0.0
  0
LINE
  5
3A0
330
1F
100
AcDbEntity
  8
C-A
  6
Continuous
 62
     3
370
     9
100
AcDbLine
 10
-664.3880692682302
 20
722.3922303671484
 30
0.0
 11
-658.3883958887964
 21
722.3922303671484
 31
0.0
  0
LINE
  5
3A1
330
1F
100
AcDbEntity
  8
C-A
  6
Continuous
 62
     3
370
     9
100
AcDbLine
 10
-650.3885427030912
 20
722.3922303671484
 30
0.0
 11
-644.3884981639229
 21
722.3922303671484
 31
0.0
  0
LINE
  5
3A2
330
1F
100
AcDbEntity
  8
C-A
  6
Continuous
 62
     3
370
     9
100
AcDbLine
 10
-636.389139857863
 20
722.3922303671484
 30
0.0
 11
-630.3889715987833
 21
722.3922303671484
 31
0.0
  0
LINE
  5
3A3
330
1F
100
AcDbEntity
  8
C-A
  6
Continuous
 62
     3
370
     9
100
AcDbLine
 10
-622.3891184130781
 20
722.3922303671484
 30
0.0
 11
-616.3885789942651
 21
722.3922303671484
 31
0.0
  0
LINE
  5
3A4
330
1F
100
AcDbEntity
  8
C-A
  6
Continuous
 62
     3
370
     9
100
AcDbLine
 10
-608.38971556785
 20
722.3922303671484
 30
0.0
 11
-602.3890524291255
 21
722.3922303671484
 31
0.0
  0
LINE
  5
3A5
330
1F
100
AcDbEntity
  8
C-A
  6
Continuous
 62
     3
370
     9
100
AcDbLine
 10
-594.3891992434203
 20
722.3922303671484
 30
0.0
 11
-588.3895258639859
 21
722.3922303671484
 31
0.0
  0
LINE
  5
3A6
330
1F
100
AcDbEntity
  8
C-A
  6
Continuous
 62
     3
370
     9
100
AcDbLine
 10
-580.3897963981922
 20
722.3922303671484
 30
0.0
 11
-574.3891332594677
 21
722.3922303671484
 31
0.0
  0
LINE
  5
3A7
330
1F
100
AcDbEntity
  8
C-A
  6
Continuous
 62
     3
370
     9
100
AcDbLine
 10
-566.3902698330531
 20
722.3922303671484
 30
0.0
 11
-560.3902252938849
 21
722.3922303671484
 31
0.0
  0
LINE
  5
3A8
330
1F
100
AcDbEntity
  8
C-A
  6
Continuous
 62
     3
370
     9
100
AcDbLine
 10
-552.3897535086229
 20
722.3922303671484
 30
0.0
 11
-546.3902038491
 21
722.3922303671484
 31
0.0
  0
LINE
  5
3A9
330
1F
100
AcDbEntity
  8
C-A
  6
Continuous
 62
     3
370
     9
100
AcDbLine
 10
-930.3858786010005
 20
722.3922303671484
 30
0.0
 11
-924.3863289414776
 21
722.3922303671484
 31
0.0
  0
LINE
  5
3AA
330
1F
100
AcDbEntity
  8
C-A
  6
Continuous
 62
     3
370
     9
100
AcDbLine
 10
-538.3858967465875
 20
722.3922303671484
 30
0.0
 11
-532.3862233671537
 21
722.3922303671484
 31
0.0
  0
LINE
  5
3AB
330
1F
100
AcDbEntity
  8
C-A
  6
Continuous
 62
     3
370
     9
100
AcDbLine
 10
-524.3820399845521
 20
722.3922303671484
 30
0.0
 11
-518.3823666051177
 21
722.3922303671484
 31
0.0
  0
LINE
  5
3AC
330
1F
100
AcDbEntity
  8
C-A
  6
Continuous
 62
     3
370
     9
100
AcDbLine
 10
-944.3849102864948
 20
722.3922303671484
 30
0.0
 11
-938.3852369070604
 21
722.3922303671484
 31
0.0
  0
LINE
  5
3AD
330
1F
100
AcDbEntity
  8
C-A
  6
Continuous
 62
     3
370
     9
100
AcDbLine
 10
-510.3780595026052
 20
722.3922303671484
 30
0.0
 11
-504.3853144382047
 21
722.3922303671484
 31
0.0
  0
LINE
  5
3AE
330
1F
100
AcDbEntity
  8
C-A
  6
Continuous
 62
     3
370
     9
100
AcDbLine
 10
-496.3745739003036
 20
722.3922303671484
 30
0.0
 11
-490.3813339562583
 21
722.3922303671484
 31
0.0
  0
LINE
  5
3AF
330
1F
100
AcDbEntity
  8
C-A
  6
Continuous
 62
     3
370
     9
100
AcDbLine
 10
-482.3707171382682
 20
722.3922303671484
 30
0.0
 11
-476.3774771942224
 21
722.3922303671484
 31
0.0
  0
LINE
  5
3B0
330
1F
100
AcDbEntity
  8
C-A
  6
Continuous
 62
     3
370
     9
100
AcDbLine
 10
-958.3766985835805
 20
729.4922303671485
 30
0.0
 11
-952.3849102864947
 21
729.4922303671485
 31
0.0
  0
LINE
  5
3B1
330
1F
100
AcDbEntity
  8
C-A
  6
Continuous
 62
     3
370
     9
100
AcDbLine
 10
-916.3864757557724
 20
729.4922303671485
 30
0.0
 11
-910.3858126170479
 21
729.4922303671485
 31
0.0
  0
LINE
  5
3B2
330
1F
100
AcDbEntity
  8
C-A
  6
Continuous
 62
     3
370
     9
100
AcDbLine
 10
-902.3859594313427
 20
729.4922303671485
 30
0.0
 11
-896.3862860519083
 21
729.4922303671485
 31
0.0
  0
LINE
  5
3B3
330
1F
100
AcDbEntity
  8
C-A
  6
Continuous
 62
     3
370
     9
100
AcDbLine
 10
-888.3865565861146
 20
729.4922303671485
 30
0.0
 11
-882.3858934473901
 21
729.4922303671485
 31
0.0
  0
LINE
  5
3B4
330
1F
100
AcDbEntity
  8
C-A
  6
Continuous
 62
     3
370
     9
100
AcDbLine
 10
-874.3860402616849
 20
729.4922303671485
 30
0.0
 11
-868.386490602162
 21
729.4922303671485
 31
0.0
  0
LINE
  5
3B5
330
1F
100
AcDbEntity
  8
C-A
  6
Continuous
 62
     3
370
     9
100
AcDbLine
 10
-860.3865136965453
 20
729.4922303671485
 30
0.0
 11
-854.3864691573771
 21
729.4922303671485
 31
0.0
  0
LINE
  5
3B6
330
1F
100
AcDbEntity
  8
C-A
  6
Continuous
 62
     3
370
     9
100
AcDbLine
 10
-846.3861210920265
 20
729.4922303671485
 30
0.0
 11
-840.3864477125927
 21
729.4922303671485
 31
0.0
  0
LINE
  5
3B7
330
1F
100
AcDbEntity
  8
C-A
  6
Continuous
 62
     3
370
     9
100
AcDbLine
 10
-832.3867182467984
 20
729.4922303671485
 30
0.0
 11
-826.3865499877193
 21
729.4922303671485
 31
0.0
  0
LINE
  5
3B8
330
1F
100
AcDbEntity
  8
C-A
  6
Continuous
 62
     3
370
     9
100
AcDbLine
 10
-818.3866968020141
 20
729.4922303671485
 30
0.0
 11
-812.3860336632896
 21
729.4922303671485
 31
0.0
  0
LINE
  5
3B9
330
1F
100
AcDbEntity
  8
C-A
  6
Continuous
 62
     3
370
     9
100
AcDbLine
 10
-804.3861804775844
 20
729.4922303671485
 30
0.0
 11
-798.3866308180615
 21
729.4922303671485
 31
0.0
  0
LINE
  5
3BA
330
1F
100
AcDbEntity
  8
C-A
  6
Continuous
 62
     3
370
     9
100
AcDbLine
 10
-790.3867776323563
 20
729.4922303671485
 30
0.0
 11
-784.3861144936312
 21
729.4922303671485
 31
0.0
  0
LINE
  5
3BB
330
1F
100
AcDbEntity
  8
C-A
  6
Continuous
 62
     3
370
     9
100
AcDbLine
 10
-776.386261307926
 20
729.4922303671485
 30
0.0
 11
-770.3867116484037
 21
729.4922303671485
 31
0.0
  0
LINE
  5
3BC
330
1F
100
AcDbEntity
  8
C-A
  6
Continuous
 62
     3
370
     9
100
AcDbLine
 10
-762.3868584626979
 20
729.4922303671485
 30
0.0
 11
-756.3861953239734
 21
729.4922303671485
 31
0.0
  0
LINE
  5
3BD
330
1F
100
AcDbEntity
  8
C-A
  6
Continuous
 62
     3
370
     9
100
AcDbLine
 10
-748.3873318975589
 20
729.4922303671485
 30
0.0
 11
-742.3871636384791
 21
729.4922303671485
 31
0.0
  0
LINE
  5
3BE
330
1F
100
AcDbEntity
  8
C-A
  6
Continuous
 62
     3
370
     9
100
AcDbLine
 10
-734.3869392930401
 20
729.4922303671485
 30
0.0
 11
-728.3872659136063
 21
729.4922303671485
 31
0.0
  0
LINE
  5
3BF
330
1F
100
AcDbEntity
  8
C-A
  6
Continuous
 62
     3
370
     9
100
AcDbLine
 10
-720.3879076075464
 20
729.4922303671485
 30
0.0
 11
-714.3873681887328
 21
729.4922303671485
 31
0.0
  0
LINE
  5
3C0
330
1F
100
AcDbEntity
  8
C-A
  6
Continuous
 62
     3
370
     9
100
AcDbLine
 10
-706.3878861627614
 20
729.4922303671485
 30
0.0
 11
-700.3878416235932
 21
729.4922303671485
 31
0.0
  0
LINE
  5
3C1
330
1F
100
AcDbEntity
  8
C-A
  6
Continuous
 62
     3
370
     9
100
AcDbLine
 10
-692.387988437888
 20
729.4922303671485
 30
0.0
 11
-686.3873252991635
 21
729.4922303671485
 31
0.0
  0
LINE
  5
3C2
330
1F
100
AcDbEntity
  8
C-A
  6
Continuous
 62
     3
370
     9
100
AcDbLine
 10
-678.3885855926604
 20
729.4922303671485
 30
0.0
 11
-672.3879224539354
 21
729.4922303671485
 31
0.0
  0
LINE
  5
3C3
330
1F
100
AcDbEntity
  8
C-A
  6
Continuous
 62
     3
370
     9
100
AcDbLine
 10
-664.3880692682302
 20
729.4922303671485
 30
0.0
 11
-658.3883958887964
 21
729.4922303671485
 31
0.0
  0
LINE
  5
3C4
330
1F
100
AcDbEntity
  8
C-A
  6
Continuous
 62
     3
370
     9
100
AcDbLine
 10
-650.3885427030912
 20
729.4922303671485
 30
0.0
 11
-644.3884981639229
 21
729.4922303671485
 31
0.0
  0
LINE
  5
3C5
330
1F
100
AcDbEntity
  8
C-A
  6
Continuous
 62
     3
370
     9
100
AcDbLine
 10
-636.389139857863
 20
729.4922303671485
 30
0.0
 11
-630.3889715987833
 21
729.4922303671485
 31
0.0
  0
LINE
  5
3C6
330
1F
100
AcDbEntity
  8
C-A
  6
Continuous
 62
     3
370
     9
100
AcDbLine
 10
-622.3891184130781
 20
729.4922303671485
 30
0.0
 11
-616.3885789942651
 21
729.4922303671485
 31
0.0
  0
LINE
  5
3C7
330
1F
100
AcDbEntity
  8
C-A
  6
Continuous
 62
     3
370
     9
100
AcDbLine
 10
-608.38971556785
 20
729.4922303671485
 30
0.0
 11
-602.3890524291255
 21
729.4922303671485
 31
0.0
  0
LINE
  5
3C8
330
1F
100
AcDbEntity
  8
C-A
  6
Continuous
 62
     3
370
     9
100
AcDbLine
 10
-594.3891992434203
 20
729.4922303671485
 30
0.0
 11
-588.3895258639859
 21
729.4922303671485
 31
0.0
  0
LINE
  5
3C9
330
1F
100
AcDbEntity
  8
C-A
  6
Continuous
 62
     3
370
     9
100
AcDbLine
 10
-580.3897963981922
 20
729.4922303671485
 30
0.0
 11
-574.3891332594677
 21
729.4922303671485
 31
0.0
  0
LINE
  5
3CA
330
1F
100
AcDbEntity
  8
C-A
  6
Continuous
 62
     3
370
     9
100
AcDbLine
 10
-566.3902698330531
 20
729.4922303671485
 30
0.0
 11
-560.3902252938849
 21
729.4922303671485
 31
0.0
  0
LINE
  5
3CB
330
1F
100
AcDbEntity
  8
C-A
  6
Continuous
 62
     3
370
     9
100
AcDbLine
 10
-552.3897535086229
 20
729.4922303671485
 30
0.0
 11
-546.3902038491
 21
729.4922303671485
 31
0.0
  0
LINE
  5
3CC
330
1F
100
AcDbEntity
  8
C-A
  6
Continuous
 62
     3
370
     9
100
AcDbLine
 10
-930.3858786010005
 20
729.4922303671485
 30
0.0
 11
-924.3863289414776
 21
729.4922303671485
 31
0.0
  0
LINE
  5
3CD
330
1F
100
AcDbEntity
  8
C-A
  6
Continuous
 62
     3
370
     9
100
AcDbLine
 10
-538.3858967465875
 20
729.4922303671485
 30
0.0
 11
-532.3862233671537
 21
729.4922303671485
 31
0.0
  0
LINE
  5
3CE
330
1F
100
AcDbEntity
  8
C-A
  6
Continuous
 62
     3
370
     9
100
AcDbLine
 10
-524.3820399845521
 20
729.4922303671485
 30
0.0
 11
-518.3823666051177
 21
729.4922303671485
 31
0.0
  0
LINE
  5
3CF
330
1F
100
AcDbEntity
  8
C-A
  6
Continuous
 62
     3
370
     9
100
AcDbLine
 10
-944.3849102864948
 20
729.4922303671485
 30
0.0
 11
-938.3852369070604
 21
729.4922303671485
 31
0.0
  0
LINE
  5
3D0
330
1F
100
AcDbEntity
  8
C-A
  6
Continuous
 62
     3
370
     9
100
AcDbLine
 10
-510.3780595026052
 20
729.4922303671485
 30
0.0
 11
-504.3853144382047
 21
729.4922303671485
 31
0.0
  0
LINE
  5
3D1
330
1F
100
AcDbEntity
  8
C-A
  6
Continuous
 62
     3
370
     9
100
AcDbLine
 10
-496.3745739003036
 20
729.4922303671485
 30
0.0
 11
-490.3813339562583
 21
729.4922303671485
 31
0.0
  0
LINE
  5
3D2
330
1F
100
AcDbEntity
  8
C-A
  6
Continuous
 62
     3
370
     9
100
AcDbLine
 10
-482.3707171382682
 20
729.4922303671485
 30
0.0
 11
-476.3774771942224
 21
729.4922303671485
 31
0.0
  0
LINE
  5
3D3
330
1F
100
AcDbEntity
  8
C-A
  6
Continuous
 62
     3
370
     9
100
AcDbLine
 10
-958.3766985835805
 20
822.3923128470894
 30
0.0
 11
-952.3849102864947
 21
822.3923128470894
 31
0.0
  0
LINE
  5
3D4
330
1F
100
AcDbEntity
  8
C-A
  6
Continuous
 62
     3
370
     9
100
AcDbLine
 10
-916.3864757557724
 20
822.3923128470894
 30
0.0
 11
-910.3858126170479
 21
822.3923128470894
 31
0.0
  0
LINE
  5
3D5
330
1F
100
AcDbEntity
  8
C-A
  6
Continuous
 62
     3
370
     9
100
AcDbLine
 10
-902.3859594313427
 20
822.3923128470894
 30
0.0
 11
-896.3862860519083
 21
822.3923128470894
 31
0.0
  0
LINE
  5
3D6
330
1F
100
AcDbEntity
  8
C-A
  6
Continuous
 62
     3
370
     9
100
AcDbLine
 10
-888.3865565861146
 20
822.3923128470894
 30
0.0
 11
-882.3858934473901
 21
822.3923128470894
 31
0.0
  0
LINE
  5
3D7
330
1F
100
AcDbEntity
  8
C-A
  6
Continuous
 62
     3
370
     9
100
AcDbLine
 10
-874.3860402616849
 20
822.3923128470894
 30
0.0
 11
-868.386490602162
 21
822.3923128470894
 31
0.0
  0
LINE
  5
3D8
330
1F
100
AcDbEntity
  8
C-A
  6
Continuous
 62
     3
370
     9
100
AcDbLine
 10
-860.3865136965453
 20
822.3923128470894
 30
0.0
 11
-854.3864691573771
 21
822.3923128470894
 31
0.0
  0
LINE
  5
3D9
330
1F
100
AcDbEntity
  8
C-A
  6
Continuous
 62
     3
370
     9
100
AcDbLine
 10
-846.3861210920265
 20
822.3923128470894
 30
0.0
 11
-840.3864477125927
 21
822.3923128470894
 31
0.0
  0
LINE
  5
3DA
330
1F
100
AcDbEntity
  8
C-A
  6
Continuous
 62
     3
370
     9
100
AcDbLine
 10
-832.3867182467984
 20
822.3923128470894
 30
0.0
 11
-826.3865499877193
 21
822.3923128470894
 31
0.0
  0
LINE
  5
3DB
330
1F
100
AcDbEntity
  8
C-A
  6
Continuous
 62
     3
370
     9
100
AcDbLine
 10
-818.3866968020141
 20
822.3923128470894
 30
0.0
 11
-812.3860336632896
 21
822.3923128470894
 31
0.0
  0
LINE
  5
3DC
330
1F
100
AcDbEntity
  8
C-A
  6
Continuous
 62
     3
370
     9
100
AcDbLine
 10
-804.3861804775844
 20
822.3923128470894
 30
0.0
 11
-798.3866308180615
 21
822.3923128470894
 31
0.0
  0
LINE
  5
3DD
330
1F
100
AcDbEntity
  8
C-A
  6
Continuous
 62
     3
370
     9
100
AcDbLine
 10
-790.3867776323563
 20
822.3923128470894
 30
0.0
 11
-784.3861144936312
 21
822.3923128470894
 31
0.0
  0
LINE
  5
3DE
330
1F
100
AcDbEntity
  8
C-A
  6
Continuous
 62
     3
370
     9
100
AcDbLine
 10
-776.386261307926
 20
822.3923128470894
 30
0.0
 11
-770.3867116484037
 21
822.3923128470894
 31
0.0
  0
LINE
  5
3DF
330
1F
100
AcDbEntity
  8
C-A
  6
Continuous
 62
     3
370
     9
100
AcDbLine
 10
-762.3868584626979
 20
822.3923128470894
 30
0.0
 11
-756.3861953239734
 21
822.3923128470894
 31
0.0
  0
LINE
  5
3E0
330
1F
100
AcDbEntity
  8
C-A
  6
Continuous
 62
     3
370
     9
100
AcDbLine
 10
-748.3873318975589
 20
822.3923128470894
 30
0.0
 11
-742.3871636384791
 21
822.3923128470894
 31
0.0
  0
LINE
  5
3E1
330
1F
100
AcDbEntity
  8
C-A
  6
Continuous
 62
     3
370
     9
100
AcDbLine
 10
-734.3869392930401
 20
822.3923128470894
 30
0.0
 11
-728.3872659136063
 21
822.3923128470894
 31
0.0
  0
LINE
  5
3E2
330
1F
100
AcDbEntity
  8
C-A
  6
Continuous
 62
     3
370
     9
100
AcDbLine
 10
-720.3879076075464
 20
822.3923128470894
 30
0.0
 11
-714.3873681887328
 21
822.3923128470894
 31
0.0
  0
LINE
  5
3E3
330
1F
100
AcDbEntity
  8
C-A
  6
Continuous
 62
     3
370
     9
100
AcDbLine
 10
-706.3878861627614
 20
822.3923128470894
 30
0.0
 11
-700.3878416235932
 21
822.3923128470894
 31
0.0
  0
LINE
  5
3E4
330
1F
100
AcDbEntity
  8
C-A
  6
Continuous
 62
     3
370
     9
100
AcDbLine
 10
-692.387988437888
 20
822.3923128470894
 30
0.0
 11
-686.3873252991635
 21
822.3923128470894
 31
0.0
  0
LINE
  5
3E5
330
1F
100
AcDbEntity
  8
C-A
  6
Continuous
 62
     3
370
     9
100
AcDbLine
 10
-678.3885855926604
 20
822.3923128470894
 30
0.0
 11
-672.3879224539354
 21
822.3923128470894
 31
0.0
  0
LINE
  5
3E6
330
1F
100
AcDbEntity
  8
C-A
  6
Continuous
 62
     3
370
     9
100
AcDbLine
 10
-664.3880692682302
 20
822.3923128470894
 30
0.0
 11
-658.3883958887964
 21
822.3923128470894
 31
0.0
  0
LINE
  5
3E7
330
1F
100
AcDbEntity
  8
C-A
  6
Continuous
 62
     3
370
     9
100
AcDbLine
 10
-650.3885427030912
 20
822.3923128470894
 30
0.0
 11
-644.3884981639229
 21
822.3923128470894
 31
0.0
  0
LINE
  5
3E8
330
1F
100
AcDbEntity
  8
C-A
  6
Continuous
 62
     3
370
     9
100
AcDbLine
 10
-636.389139857863
 20
822.3923128470894
 30
0.0
 11
-630.3889715987833
 21
822.3923128470894
 31
0.0
  0
LINE
  5
3E9
330
1F
100
AcDbEntity
  8
C-A
  6
Continuous
 62
     3
370
     9
100
AcDbLine
 10
-622.3891184130781
 20
822.3923128470894
 30
0.0
 11
-616.3885789942651
 21
822.3923128470894
 31
0.0
  0
LINE
  5
3EA
330
1F
100
AcDbEntity
  8
C-A
  6
Continuous
 62
     3
370
     9
100
AcDbLine
 10
-608.38971556785
 20
822.3923128470894
 30
0.0
 11
-602.3890524291255
 21
822.3923128470894
 31
0.0
  0
LINE
  5
3EB
330
1F
100
AcDbEntity
  8
C-A
  6
Continuous
 62
     3
370
     9
100
AcDbLine
 10
-594.3891992434203
 20
822.3923128470894
 30
0.0
 11
-588.3895258639859
 21
822.3923128470894
 31
0.0
  0
LINE
  5
3EC
330
1F
100
AcDbEntity
  8
C-A
  6
Continuous
 62
     3
370
     9
100
AcDbLine
 10
-580.3897963981922
 20
822.3923128470894
 30
0.0
 11
-574.3891332594677
 21
822.3923128470894
 31
0.0
  0
LINE
  5
3ED
330
1F
100
AcDbEntity
  8
C-A
  6
Continuous
 62
     3
370
     9
100
AcDbLine
 10
-566.3902698330531
 20
822.3923128470894
 30
0.0
 11
-560.3902252938849
 21
822.3923128470894
 31
0.0
  0
LINE
  5
3EE
330
1F
100
AcDbEntity
  8
C-A
  6
Continuous
 62
     3
370
     9
100
AcDbLine
 10
-552.3897535086229
 20
822.3923128470894
 30
0.0
 11
-546.3902038491
 21
822.3923128470894
 31
0.0
  0
LINE
  5
3EF
330
1F
100
AcDbEntity
  8
C-A
  6
Continuous
 62
     3
370
     9
100
AcDbLine
 10
-930.3858786010005
 20
822.3923128470894
 30
0.0
 11
-924.3863289414776
 21
822.3923128470894
 31
0.0
  0
LINE
  5
3F0
330
1F
100
AcDbEntity
  8
C-A
  6
Continuous
 62
     3
370
     9
100
AcDbLine
 10
-538.3858967465875
 20
822.3923128470894
 30
0.0
 11
-532.3862233671537
 21
822.3923128470894
 31
0.0
  0
LINE
  5
3F1
330
1F
100
AcDbEntity
  8
C-A
  6
Continuous
 62
     3
370
     9
100
AcDbLine
 10
-524.3820399845521
 20
822.3923128470894
 30
0.0
 11
-518.3823666051177
 21
822.3923128470894
 31
0.0
  0
LINE
  5
3F2
330
1F
100
AcDbEntity
  8
C-A
  6
Continuous
 62
     3
370
     9
100
AcDbLine
 10
-944.3849102864948
 20
822.3923128470894
 30
0.0
 11
-938.3852369070604
 21
822.3923128470894
 31
0.0
  0
LINE
  5
3F3
330
1F
100
AcDbEntity
  8
C-A
  6
Continuous
 62
     3
370
     9
100
AcDbLine
 10
-510.3780595026052
 20
822.3923128470894
 30
0.0
 11
-504.3853144382047
 21
822.3923128470894
 31
0.0
  0
LINE
  5
3F4
330
1F
100
AcDbEntity
  8
C-A
  6
Continuous
 62
     3
370
     9
100
AcDbLine
 10
-496.3745739003036
 20
822.3923128470894
 30
0.0
 11
-490.3813339562583
 21
822.3923128470894
 31
0.0
  0
LINE
  5
3F5
330
1F
100
AcDbEntity
  8
C-A
  6
Continuous
 62
     3
370
     9
100
AcDbLine
 10
-482.3707171382682
 20
822.3923128470894
 30
0.0
 11
-476.3774771942224
 21
822.3923128470894
 31
0.0
  0
LINE
  5
3F6
330
1F
100
AcDbEntity
  8
C-A
  6
Continuous
 62
     3
370
     9
100
AcDbLine
 10
-958.3766985835805
 20
829.4923128470898
 30
0.0
 11
-952.3849102864947
 21
829.4923128470898
 31
0.0
  0
LINE
  5
3F7
330
1F
100
AcDbEntity
  8
C-A
  6
Continuous
 62
     3
370
     9
100
AcDbLine
 10
-916.3864757557724
 20
829.4923128470898
 30
0.0
 11
-910.3858126170479
 21
829.4923128470898
 31
0.0
  0
LINE
  5
3F8
330
1F
100
AcDbEntity
  8
C-A
  6
Continuous
 62
     3
370
     9
100
AcDbLine
 10
-902.3859594313427
 20
829.4923128470898
 30
0.0
 11
-896.3862860519083
 21
829.4923128470898
 31
0.0
  0
LINE
  5
3F9
330
1F
100
AcDbEntity
  8
C-A
  6
Continuous
 62
     3
370
     9
100
AcDbLine
 10
-888.3865565861146
 20
829.4923128470898
 30
0.0
 11
-882.3858934473901
 21
829.4923128470898
 31
0.0
  0
LINE
  5
3FA
330
1F
100
AcDbEntity
  8
C-A
  6
Continuous
 62
     3
370
     9
100
AcDbLine
 10
-874.3860402616849
 20
829.4923128470898
 30
0.0
 11
-868.386490602162
 21
829.4923128470898
 31
0.0
  0
LINE
  5
3FB
330
1F
100
AcDbEntity
  8
C-A
  6
Continuous
 62
     3
370
     9
100
AcDbLine
 10
-860.3865136965453
 20
829.4923128470898
 30
0.0
 11
-854.3864691573771
 21
829.4923128470898
 31
0.0
  0
LINE
  5
3FC
330
1F
100
AcDbEntity
  8
C-A
  6
Continuous
 62
     3
370
     9
100
AcDbLine
 10
-846.3861210920265
 20
829.4923128470898
 30
0.0
 11
-840.3864477125927
 21
829.4923128470898
 31
0.0
  0
LINE
  5
3FD
330
1F
100
AcDbEntity
  8
C-A
  6
Continuous
 62
     3
370
     9
100
AcDbLine
 10
-832.3867182467984
 20
829.4923128470898
 30
0.0
 11
-826.3865499877193
 21
829.4923128470898
 31
0.0
  0
LINE
  5
3FE
330
1F
100
AcDbEntity
  8
C-A
  6
Continuous
 62
     3
370
     9
100
AcDbLine
 10
-818.3866968020141
 20
829.4923128470898
 30
0.0
 11
-812.3860336632896
 21
829.4923128470898
 31
0.0
  0
LINE
  5
3FF
330
1F
100
AcDbEntity
  8
C-A
  6
Continuous
 62
     3
370
     9
100
AcDbLine
 10
-804.3861804775844
 20
829.4923128470898
 30
0.0
 11
-798.3866308180615
 21
829.4923128470898
 31
0.0
  0
LINE
  5
400
330
1F
100
AcDbEntity
  8
C-A
  6
Continuous
 62
     3
370
     9
100
AcDbLine
 10
-790.3867776323563
 20
829.4923128470898
 30
0.0
 11
-784.3861144936312
 21
829.4923128470898
 31
0.0
  0
LINE
  5
401
330
1F
100
AcDbEntity
  8
C-A
  6
Continuous
 62
     3
370
     9
100
AcDbLine
 10
-776.386261307926
 20
829.4923128470898
 30
0.0
 11
-770.3867116484037
 21
829.4923128470898
 31
0.0
  0
LINE
  5
402
330
1F
100
AcDbEntity
  8
C-A
  6
Continuous
 62
     3
370
     9
100
AcDbLine
 10
-762.3868584626979
 20
829.4923128470898
 30
0.0
 11
-756.3861953239734
 21
829.4923128470898
 31
0.0
  0
LINE
  5
403
330
1F
100
AcDbEntity
  8
C-A
  6
Continuous
 62
     3
370
     9
100
AcDbLine
 10
-748.3873318975589
 20
829.4923128470898
 30
0.0
 11
-742.3871636384791
 21
829.4923128470898
 31
0.0
  0
LINE
  5
404
330
1F
100
AcDbEntity
  8
C-A
  6
Continuous
 62
     3
370
     9
100
AcDbLine
 10
-734.3869392930401
 20
829.4923128470898
 30
0.0
 11
-728.3872659136063
 21
829.4923128470898
 31
0.0
  0
LINE
  5
405
330
1F
100
AcDbEntity
  8
C-A
  6
Continuous
 62
     3
370
     9
100
AcDbLine
 10
-720.3879076075464
 20
829.4923128470898
 30
0.0
 11
-714.3873681887328
 21
829.4923128470898
 31
0.0
  0
LINE
  5
406
330
1F
100
AcDbEntity
  8
C-A
  6
Continuous
 62
     3
370
     9
100
AcDbLine
 10
-706.3878861627614
 20
829.4923128470898
 30
0.0
 11
-700.3878416235932
 21
829.4923128470898
 31
0.0
  0
LINE
  5
407
330
1F
100
AcDbEntity
  8
C-A
  6
Continuous
 62
     3
370
     9
100
AcDbLine
 10
-692.387988437888
 20
829.4923128470898
 30
0.0
 11
-686.3873252991635
 21
829.4923128470898
 31
0.0
  0
LINE
  5
408
330
1F
100
AcDbEntity
  8
C-A
  6
Continuous
 62
     3
370
     9
100
AcDbLine
 10
-678.3885855926604
 20
829.4923128470898
 30
0.0
 11
-672.3879224539354
 21
829.4923128470898
 31
0.0
  0
LINE
  5
409
330
1F
100
AcDbEntity
  8
C-A
  6
Continuous
 62
     3
370
     9
100
AcDbLine
 10
-664.3880692682302
 20
829.4923128470898
 30
0.0
 11
-658.3883958887964
 21
829.4923128470898
 31
0.0
  0
LINE
  5
40A
330
1F
100
AcDbEntity
  8
C-A
  6
Continuous
 62
     3
370
     9
100
AcDbLine
 10
-650.3885427030912
 20
829.4923128470898
 30
0.0
 11
-644.3884981639229
 21
829.4923128470898
 31
0.0
  0
LINE
  5
40B
330
1F
100
AcDbEntity
  8
C-A
  6
Continuous
 62
     3
370
     9
100
AcDbLine
 10
-636.389139857863
 20
829.4923128470898
 30
0.0
 11
-630.3889715987833
 21
829.4923128470898
 31
0.0
  0
LINE
  5
40C
330
1F
100
AcDbEntity
  8
C-A
  6
Continuous
 62
     3
370
     9
100
AcDbLine
 10
-622.3891184130781
 20
829.4923128470898
 30
0.0
 11
-616.3885789942651
 21
829.4923128470898
 31
0.0
  0
LINE
  5
40D
330
1F
100
AcDbEntity
  8
C-A
  6
Continuous
 62
     3
370
     9
100
AcDbLine
 10
-608.38971556785
 20
829.4923128470898
 30
0.0
 11
-602.3890524291255
 21
829.4923128470898
 31
0.0
  0
LINE
  5
40E
330
1F
100
AcDbEntity
  8
C-A
  6
Continuous
 62
     3
370
     9
100
AcDbLine
 10
-594.3891992434203
 20
829.4923128470898
 30
0.0
 11
-588.3895258639859
 21
829.4923128470898
 31
0.0
  0
LINE
  5
40F
330
1F
100
AcDbEntity
  8
C-A
  6
Continuous
 62
     3
370
     9
100
AcDbLine
 10
-580.3897963981922
 20
829.4923128470898
 30
0.0
 11
-574.3891332594677
 21
829.4923128470898
 31
0.0
  0
LINE
  5
410
330
1F
100
AcDbEntity
  8
C-A
  6
Continuous
 62
     3
370
     9
100
AcDbLine
 10
-566.3902698330531
 20
829.4923128470898
 30
0.0
 11
-560.3902252938849
 21
829.4923128470898
 31
0.0
  0
LINE
  5
411
330
1F
100
AcDbEntity
  8
C-A
  6
Continuous
 62
     3
370
     9
100
AcDbLine
 10
-552.3897535086229
 20
829.4923128470898
 30
0.0
 11
-546.3902038491
 21
829.4923128470898
 31
0.0
  0
LINE
  5
412
330
1F
100
AcDbEntity
  8
C-A
  6
Continuous
 62
     3
370
     9
100
AcDbLine
 10
-930.3858786010005
 20
829.4923128470898
 30
0.0
 11
-924.3863289414776
 21
829.4923128470898
 31
0.0
  0
LINE
  5
413
330
1F
100
AcDbEntity
  8
C-A
  6
Continuous
 62
     3
370
     9
100
AcDbLine
 10
-538.3858967465875
 20
829.4923128470898
 30
0.0
 11
-532.3862233671537
 21
829.4923128470898
 31
0.0
  0
LINE
  5
414
330
1F
100
AcDbEntity
  8
C-A
  6
Continuous
 62
     3
370
     9
100
AcDbLine
 10
-524.3820399845521
 20
829.4923128470898
 30
0.0
 11
-518.3823666051177
 21
829.4923128470898
 31
0.0
  0
LINE
  5
415
330
1F
100
AcDbEntity
  8
C-A
  6
Continuous
 62
     3
370
     9
100
AcDbLine
 10
-944.3849102864948
 20
829.4923128470898
 30
0.0
 11
-938.3852369070604
 21
829.4923128470898
 31
0.0
  0
LINE
  5
416
330
1F
100
AcDbEntity
  8
C-A
  6
Continuous
 62
     3
370
     9
100
AcDbLine
 10
-510.3780595026052
 20
829.4923128470898
 30
0.0
 11
-504.3853144382047
 21
829.4923128470898
 31
0.0
  0
LINE
  5
417
330
1F
100
AcDbEntity
  8
C-A
  6
Continuous
 62
     3
370
     9
100
AcDbLine
 10
-496.3745739003036
 20
829.4923128470898
 30
0.0
 11
-490.3813339562583
 21
829.4923128470898
 31
0.0
  0
LINE
  5
418
330
1F
100
AcDbEntity
  8
C-A
  6
Continuous
 62
     3
370
     9
100
AcDbLine
 10
-482.3707171382682
 20
829.4923128470898
 30
0.0
 11
-476.3774771942224
 21
829.4923128470898
 31
0.0
  0
LINE
  5
419
330
1F
100
AcDbEntity
  8
C-1
  6
JWW_DASHED3
 62
     2
370
     9
100
AcDbLine
 10
-492.3754795300542
 20
450.9416942475323
 30
0.0
 11
-942.3770878889015
 21
450.9416942475323
 31
0.0
  0
LINE
  5
41A
330
1F
100
AcDbEntity
  8
C-1
  6
JWW_DASHED3
 62
     2
370
     9
100
AcDbLine
 10
-942.3770878889015
 20
450.9416942475323
 30
0.0
 11
-942.3770878889015
 21
900.941817967444
 31
0.0
  0
LINE
  5
41B
330
1F
100
AcDbEntity
  8
C-1
  6
JWW_DASHED3
 62
     2
370
     9
100
AcDbLine
 10
-942.3770878889015
 20
900.941817967444
 30
0.0
 11
-492.3754795300542
 21
900.941817967444
 31
0.0
  0
LINE
  5
41C
330
1F
100
AcDbEntity
  8
C-A
  6
Continuous
 62
     3
370
     9
100
AcDbLine
 10
-524.405794207525
 20
625.9419004473848
 30
0.0
 11
-518.4016669112833
 21
625.9419004473848
 31
0.0
  0
LINE
  5
41D
330
1F
100
AcDbEntity
  8
C-A
  6
Continuous
 62
     3
370
     9
100
AcDbLine
 10
-538.4022277748812
 20
625.9419004473848
 30
0.0
 11
-532.3971107193495
 21
625.9419004473848
 31
0.0
  0
LINE
  5
41E
330
1F
100
AcDbEntity
  8
C-A
  6
Continuous
 62
     3
370
     9
100
AcDbLine
 10
-552.3981664625927
 20
625.9419004473848
 30
0.0
 11
-546.3936680066172
 21
625.9419004473848
 31
0.0
  0
LINE
  5
41F
330
1F
100
AcDbEntity
  8
C-A
  6
Continuous
 62
     3
370
     9
100
AcDbLine
 10
-566.3942288702151
 20
625.9419004473848
 30
0.0
 11
-560.3897304142396
 21
625.9419004473848
 31
0.0
  0
LINE
  5
420
330
1F
100
AcDbEntity
  8
C-A
  6
Continuous
 62
     3
370
     9
100
AcDbLine
 10
-482.3707171382682
 20
725.9422303671483
 30
0.0
 11
-476.3774771942224
 21
725.9422303671483
 31
0.0
  0
LINE
  5
421
330
1F
100
AcDbEntity
  8
C-A
  6
Continuous
 62
     3
370
     9
100
AcDbLine
 10
-482.3707171382682
 20
825.9423128470893
 30
0.0
 11
-476.3774771942224
 21
825.9423128470893
 31
0.0
  0
LINE
  5
422
330
1F
100
AcDbEntity
  8
C-A
  6
Continuous
 62
     3
370
     9
100
AcDbLine
 10
-496.3745739003036
 20
725.9422303671483
 30
0.0
 11
-490.3813339562583
 21
725.9422303671483
 31
0.0
  0
LINE
  5
423
330
1F
100
AcDbEntity
  8
C-A
  6
Continuous
 62
     3
370
     9
100
AcDbLine
 10
-496.3745739003036
 20
825.9423128470893
 30
0.0
 11
-490.3813339562583
 21
825.9423128470893
 31
0.0
  0
LINE
  5
424
330
1F
100
AcDbEntity
  8
C-A
  6
Continuous
 62
     3
370
     9
100
AcDbLine
 10
-636.3871603392818
 20
525.9420654072666
 30
0.0
 11
-630.3874869598474
 21
525.9420654072666
 31
0.0
  0
LINE
  5
425
330
1F
100
AcDbEntity
  8
C-A
  6
Continuous
 62
     3
370
     9
100
AcDbLine
 10
-650.3875529438005
 20
525.9420654072666
 30
0.0
 11
-644.387013524987
 21
525.9420654072666
 31
0.0
  0
LINE
  5
426
330
1F
100
AcDbEntity
  8
C-A
  6
Continuous
 62
     3
370
     9
100
AcDbLine
 10
-664.3880692682302
 20
525.9420654072666
 30
0.0
 11
-658.3874061295057
 21
525.9420654072666
 31
0.0
  0
LINE
  5
427
330
1F
100
AcDbEntity
  8
C-A
  6
Continuous
 62
     3
370
     9
100
AcDbLine
 10
-678.3875958333698
 20
525.9420654072666
 30
0.0
 11
-672.3879224539354
 21
525.9420654072666
 31
0.0
  0
LINE
  5
428
330
1F
100
AcDbEntity
  8
C-A
  6
Continuous
 62
     3
370
     9
100
AcDbLine
 10
-580.3897963981922
 20
625.9419004473848
 30
0.0
 11
-574.3856691019505
 21
625.9419004473848
 31
0.0
  0
LINE
  5
429
330
1F
100
AcDbEntity
  8
C-A
  6
Continuous
 62
     3
370
     9
100
AcDbLine
 10
-510.3780595026052
 20
725.9422303671483
 30
0.0
 11
-504.3853144382047
 21
725.9422303671483
 31
0.0
  0
LINE
  5
42A
330
1F
100
AcDbEntity
  8
C-A
  6
Continuous
 62
     3
370
     9
100
AcDbLine
 10
-510.3780595026052
 20
825.9423128470893
 30
0.0
 11
-504.3853144382047
 21
825.9423128470893
 31
0.0
  0
LINE
  5
42B
330
1F
100
AcDbEntity
  8
C-A
  6
Continuous
 62
     3
370
     9
100
AcDbLine
 10
-944.3849102864948
 20
525.9420654072666
 30
0.0
 11
-938.3852369070604
 21
525.9420654072666
 31
0.0
  0
LINE
  5
42C
330
1F
100
AcDbEntity
  8
C-A
  6
Continuous
 62
     3
370
     9
100
AcDbLine
 10
-944.3849102864948
 20
625.9419004473848
 30
0.0
 11
-938.3852369070604
 21
625.9419004473848
 31
0.0
  0
LINE
  5
42D
330
1F
100
AcDbEntity
  8
C-A
  6
Continuous
 62
     3
370
     9
100
AcDbLine
 10
-944.3849102864948
 20
725.9422303671483
 30
0.0
 11
-938.3852369070604
 21
725.9422303671483
 31
0.0
  0
LINE
  5
42E
330
1F
100
AcDbEntity
  8
C-A
  6
Continuous
 62
     3
370
     9
100
AcDbLine
 10
-944.3849102864948
 20
825.9423128470893
 30
0.0
 11
-938.3852369070604
 21
825.9423128470893
 31
0.0
  0
LINE
  5
42F
330
1F
100
AcDbEntity
  8
C-A
  6
Continuous
 62
     3
370
     9
100
AcDbLine
 10
-930.3858786010005
 20
525.9420654072666
 30
0.0
 11
-924.3863289414776
 21
525.9420654072666
 31
0.0
  0
LINE
  5
430
330
1F
100
AcDbEntity
  8
C-A
  6
Continuous
 62
     3
370
     9
100
AcDbLine
 10
-692.387988437888
 20
525.9420654072666
 30
0.0
 11
-686.3873252991635
 21
525.9420654072666
 31
0.0
  0
LINE
  5
431
330
1F
100
AcDbEntity
  8
C-A
  6
Continuous
 62
     3
370
     9
100
AcDbLine
 10
-706.3878861627614
 20
525.9420654072666
 30
0.0
 11
-700.3878416235932
 21
525.9420654072666
 31
0.0
  0
LINE
  5
432
330
1F
100
AcDbEntity
  8
C-A
  6
Continuous
 62
     3
370
     9
100
AcDbLine
 10
-720.3879076075464
 20
525.9420654072666
 30
0.0
 11
-714.3873681887328
 21
525.9420654072666
 31
0.0
  0
LINE
  5
433
330
1F
100
AcDbEntity
  8
C-A
  6
Continuous
 62
     3
370
     9
100
AcDbLine
 10
-734.3869392930401
 20
525.9420654072666
 30
0.0
 11
-728.3872659136063
 21
525.9420654072666
 31
0.0
  0
LINE
  5
434
330
1F
100
AcDbEntity
  8
C-A
  6
Continuous
 62
     3
370
     9
100
AcDbLine
 10
-748.3873318975589
 20
525.9420654072666
 30
0.0
 11
-742.3871636384791
 21
525.9420654072666
 31
0.0
  0
LINE
  5
435
330
1F
100
AcDbEntity
  8
C-A
  6
Continuous
 62
     3
370
     9
100
AcDbLine
 10
-762.3868584626979
 20
525.9420654072666
 30
0.0
 11
-756.3861953239734
 21
525.9420654072666
 31
0.0
  0
LINE
  5
436
330
1F
100
AcDbEntity
  8
C-A
  6
Continuous
 62
     3
370
     9
100
AcDbLine
 10
-776.386261307926
 20
525.9420654072666
 30
0.0
 11
-770.3867116484037
 21
525.9420654072666
 31
0.0
  0
LINE
  5
437
330
1F
100
AcDbEntity
  8
C-A
  6
Continuous
 62
     3
370
     9
100
AcDbLine
 10
-790.3867776323563
 20
525.9420654072666
 30
0.0
 11
-784.3861144936312
 21
525.9420654072666
 31
0.0
  0
LINE
  5
438
330
1F
100
AcDbEntity
  8
C-A
  6
Continuous
 62
     3
370
     9
100
AcDbLine
 10
-804.3861804775844
 20
525.9420654072666
 30
0.0
 11
-798.3866308180615
 21
525.9420654072666
 31
0.0
  0
LINE
  5
439
330
1F
100
AcDbEntity
  8
C-A
  6
Continuous
 62
     3
370
     9
100
AcDbLine
 10
-818.3866968020141
 20
525.9420654072666
 30
0.0
 11
-812.3860336632896
 21
525.9420654072666
 31
0.0
  0
LINE
  5
43A
330
1F
100
AcDbEntity
  8
C-A
  6
Continuous
 62
     3
370
     9
100
AcDbLine
 10
-832.3867182467984
 20
525.9420654072666
 30
0.0
 11
-826.3865499877193
 21
525.9420654072666
 31
0.0
  0
LINE
  5
43B
330
1F
100
AcDbEntity
  8
C-A
  6
Continuous
 62
     3
370
     9
100
AcDbLine
 10
-846.3861210920265
 20
525.9420654072666
 30
0.0
 11
-840.3864477125927
 21
525.9420654072666
 31
0.0
  0
LINE
  5
43C
330
1F
100
AcDbEntity
  8
C-A
  6
Continuous
 62
     3
370
     9
100
AcDbLine
 10
-860.3865136965453
 20
525.9420654072666
 30
0.0
 11
-854.3864691573771
 21
525.9420654072666
 31
0.0
  0
LINE
  5
43D
330
1F
100
AcDbEntity
  8
C-A
  6
Continuous
 62
     3
370
     9
100
AcDbLine
 10
-874.3860402616849
 20
525.9420654072666
 30
0.0
 11
-868.386490602162
 21
525.9420654072666
 31
0.0
  0
LINE
  5
43E
330
1F
100
AcDbEntity
  8
C-A
  6
Continuous
 62
     3
370
     9
100
AcDbLine
 10
-888.3865565861146
 20
525.9420654072666
 30
0.0
 11
-882.3858934473901
 21
525.9420654072666
 31
0.0
  0
LINE
  5
43F
330
1F
100
AcDbEntity
  8
C-A
  6
Continuous
 62
     3
370
     9
100
AcDbLine
 10
-902.3859594313427
 20
525.9420654072666
 30
0.0
 11
-896.3862860519083
 21
525.9420654072666
 31
0.0
  0
LINE
  5
440
330
1F
100
AcDbEntity
  8
C-A
  6
Continuous
 62
     3
370
     9
100
AcDbLine
 10
-916.3864757557724
 20
525.9420654072666
 30
0.0
 11
-910.3858126170479
 21
525.9420654072666
 31
0.0
  0
LINE
  5
441
330
1F
100
AcDbEntity
  8
C-A
  6
Continuous
 62
     3
370
     9
100
AcDbLine
 10
-930.3858786010005
 20
625.9419004473848
 30
0.0
 11
-924.3863289414776
 21
625.9419004473848
 31
0.0
  0
LINE
  5
442
330
1F
100
AcDbEntity
  8
C-A
  6
Continuous
 62
     3
370
     9
100
AcDbLine
 10
-594.3891992434203
 20
625.9419004473848
 30
0.0
 11
-588.3895258639859
 21
625.9419004473848
 31
0.0
  0
LINE
  5
443
330
1F
100
AcDbEntity
  8
C-A
  6
Continuous
 62
     3
370
     9
100
AcDbLine
 10
-608.38971556785
 20
625.9419004473848
 30
0.0
 11
-602.3890524291255
 21
625.9419004473848
 31
0.0
  0
LINE
  5
444
330
1F
100
AcDbEntity
  8
C-A
  6
Continuous
 62
     3
370
     9
100
AcDbLine
 10
-622.3891184130781
 20
625.9419004473848
 30
0.0
 11
-616.3885789942651
 21
625.9419004473848
 31
0.0
  0
LINE
  5
445
330
1F
100
AcDbEntity
  8
C-A
  6
Continuous
 62
     3
370
     9
100
AcDbLine
 10
-636.389139857863
 20
625.9419004473848
 30
0.0
 11
-630.3889715987833
 21
625.9419004473848
 31
0.0
  0
LINE
  5
446
330
1F
100
AcDbEntity
  8
C-A
  6
Continuous
 62
     3
370
     9
100
AcDbLine
 10
-650.3885427030912
 20
625.9419004473848
 30
0.0
 11
-644.3884981639229
 21
625.9419004473848
 31
0.0
  0
LINE
  5
447
330
1F
100
AcDbEntity
  8
C-A
  6
Continuous
 62
     3
370
     9
100
AcDbLine
 10
-664.3880692682302
 20
625.9419004473848
 30
0.0
 11
-658.3883958887964
 21
625.9419004473848
 31
0.0
  0
LINE
  5
448
330
1F
100
AcDbEntity
  8
C-A
  6
Continuous
 62
     3
370
     9
100
AcDbLine
 10
-678.3885855926604
 20
625.9419004473848
 30
0.0
 11
-672.3879224539354
 21
625.9419004473848
 31
0.0
  0
LINE
  5
449
330
1F
100
AcDbEntity
  8
C-A
  6
Continuous
 62
     3
370
     9
100
AcDbLine
 10
-692.387988437888
 20
625.9419004473848
 30
0.0
 11
-686.3873252991635
 21
625.9419004473848
 31
0.0
  0
LINE
  5
44A
330
1F
100
AcDbEntity
  8
C-A
  6
Continuous
 62
     3
370
     9
100
AcDbLine
 10
-706.3878861627614
 20
625.9419004473848
 30
0.0
 11
-700.3878416235932
 21
625.9419004473848
 31
0.0
  0
LINE
  5
44B
330
1F
100
AcDbEntity
  8
C-A
  6
Continuous
 62
     3
370
     9
100
AcDbLine
 10
-720.3879076075464
 20
625.9419004473848
 30
0.0
 11
-714.3873681887328
 21
625.9419004473848
 31
0.0
  0
LINE
  5
44C
330
1F
100
AcDbEntity
  8
C-A
  6
Continuous
 62
     3
370
     9
100
AcDbLine
 10
-734.3869392930401
 20
625.9419004473848
 30
0.0
 11
-728.3872659136063
 21
625.9419004473848
 31
0.0
  0
LINE
  5
44D
330
1F
100
AcDbEntity
  8
C-A
  6
Continuous
 62
     3
370
     9
100
AcDbLine
 10
-748.3873318975589
 20
625.9419004473848
 30
0.0
 11
-742.3871636384791
 21
625.9419004473848
 31
0.0
  0
LINE
  5
44E
330
1F
100
AcDbEntity
  8
C-A
  6
Continuous
 62
     3
370
     9
100
AcDbLine
 10
-762.3868584626979
 20
625.9419004473848
 30
0.0
 11
-756.3861953239734
 21
625.9419004473848
 31
0.0
  0
LINE
  5
44F
330
1F
100
AcDbEntity
  8
C-A
  6
Continuous
 62
     3
370
     9
100
AcDbLine
 10
-776.386261307926
 20
625.9419004473848
 30
0.0
 11
-770.3867116484037
 21
625.9419004473848
 31
0.0
  0
LINE
  5
450
330
1F
100
AcDbEntity
  8
C-A
  6
Continuous
 62
     3
370
     9
100
AcDbLine
 10
-790.3867776323563
 20
625.9419004473848
 30
0.0
 11
-784.3861144936312
 21
625.9419004473848
 31
0.0
  0
LINE
  5
451
330
1F
100
AcDbEntity
  8
C-A
  6
Continuous
 62
     3
370
     9
100
AcDbLine
 10
-804.3861804775844
 20
625.9419004473848
 30
0.0
 11
-798.3866308180615
 21
625.9419004473848
 31
0.0
  0
LINE
  5
452
330
1F
100
AcDbEntity
  8
C-A
  6
Continuous
 62
     3
370
     9
100
AcDbLine
 10
-818.3866968020141
 20
625.9419004473848
 30
0.0
 11
-812.3860336632896
 21
625.9419004473848
 31
0.0
  0
LINE
  5
453
330
1F
100
AcDbEntity
  8
C-A
  6
Continuous
 62
     3
370
     9
100
AcDbLine
 10
-832.3867182467984
 20
625.9419004473848
 30
0.0
 11
-826.3865499877193
 21
625.9419004473848
 31
0.0
  0
LINE
  5
454
330
1F
100
AcDbEntity
  8
C-A
  6
Continuous
 62
     3
370
     9
100
AcDbLine
 10
-846.3861210920265
 20
625.9419004473848
 30
0.0
 11
-840.3864477125927
 21
625.9419004473848
 31
0.0
  0
LINE
  5
455
330
1F
100
AcDbEntity
  8
C-A
  6
Continuous
 62
     3
370
     9
100
AcDbLine
 10
-860.3865136965453
 20
625.9419004473848
 30
0.0
 11
-854.3864691573771
 21
625.9419004473848
 31
0.0
  0
LINE
  5
456
330
1F
100
AcDbEntity
  8
C-A
  6
Continuous
 62
     3
370
     9
100
AcDbLine
 10
-874.3860402616849
 20
625.9419004473848
 30
0.0
 11
-868.386490602162
 21
625.9419004473848
 31
0.0
  0
LINE
  5
457
330
1F
100
AcDbEntity
  8
C-A
  6
Continuous
 62
     3
370
     9
100
AcDbLine
 10
-888.3865565861146
 20
625.9419004473848
 30
0.0
 11
-882.3858934473901
 21
625.9419004473848
 31
0.0
  0
LINE
  5
458
330
1F
100
AcDbEntity
  8
C-A
  6
Continuous
 62
     3
370
     9
100
AcDbLine
 10
-902.3859594313427
 20
625.9419004473848
 30
0.0
 11
-896.3862860519083
 21
625.9419004473848
 31
0.0
  0
LINE
  5
459
330
1F
100
AcDbEntity
  8
C-A
  6
Continuous
 62
     3
370
     9
100
AcDbLine
 10
-916.3864757557724
 20
625.9419004473848
 30
0.0
 11
-910.3858126170479
 21
625.9419004473848
 31
0.0
  0
LINE
  5
45A
330
1F
100
AcDbEntity
  8
C-A
  6
Continuous
 62
     3
370
     9
100
AcDbLine
 10
-524.3820399845521
 20
725.9422303671483
 30
0.0
 11
-518.3823666051177
 21
725.9422303671483
 31
0.0
  0
LINE
  5
45B
330
1F
100
AcDbEntity
  8
C-A
  6
Continuous
 62
     3
370
     9
100
AcDbLine
 10
-538.3858967465875
 20
725.9422303671483
 30
0.0
 11
-532.3862233671537
 21
725.9422303671483
 31
0.0
  0
LINE
  5
45C
330
1F
100
AcDbEntity
  8
C-A
  6
Continuous
 62
     3
370
     9
100
AcDbLine
 10
-930.3858786010005
 20
725.9422303671483
 30
0.0
 11
-924.3863289414776
 21
725.9422303671483
 31
0.0
  0
LINE
  5
45D
330
1F
100
AcDbEntity
  8
C-A
  6
Continuous
 62
     3
370
     9
100
AcDbLine
 10
-552.3897535086229
 20
725.9422303671483
 30
0.0
 11
-546.3902038491
 21
725.9422303671483
 31
0.0
  0
LINE
  5
45E
330
1F
100
AcDbEntity
  8
C-A
  6
Continuous
 62
     3
370
     9
100
AcDbLine
 10
-566.3902698330531
 20
725.9422303671483
 30
0.0
 11
-560.3902252938849
 21
725.9422303671483
 31
0.0
  0
LINE
  5
45F
330
1F
100
AcDbEntity
  8
C-A
  6
Continuous
 62
     3
370
     9
100
AcDbLine
 10
-580.3897963981922
 20
725.9422303671483
 30
0.0
 11
-574.3891332594677
 21
725.9422303671483
 31
0.0
  0
LINE
  5
460
330
1F
100
AcDbEntity
  8
C-A
  6
Continuous
 62
     3
370
     9
100
AcDbLine
 10
-594.3891992434203
 20
725.9422303671483
 30
0.0
 11
-588.3895258639859
 21
725.9422303671483
 31
0.0
  0
LINE
  5
461
330
1F
100
AcDbEntity
  8
C-A
  6
Continuous
 62
     3
370
     9
100
AcDbLine
 10
-608.38971556785
 20
725.9422303671483
 30
0.0
 11
-602.3890524291255
 21
725.9422303671483
 31
0.0
  0
LINE
  5
462
330
1F
100
AcDbEntity
  8
C-A
  6
Continuous
 62
     3
370
     9
100
AcDbLine
 10
-622.3891184130781
 20
725.9422303671483
 30
0.0
 11
-616.3885789942651
 21
725.9422303671483
 31
0.0
  0
LINE
  5
463
330
1F
100
AcDbEntity
  8
C-A
  6
Continuous
 62
     3
370
     9
100
AcDbLine
 10
-636.389139857863
 20
725.9422303671483
 30
0.0
 11
-630.3889715987833
 21
725.9422303671483
 31
0.0
  0
LINE
  5
464
330
1F
100
AcDbEntity
  8
C-A
  6
Continuous
 62
     3
370
     9
100
AcDbLine
 10
-650.3885427030912
 20
725.9422303671483
 30
0.0
 11
-644.3884981639229
 21
725.9422303671483
 31
0.0
  0
LINE
  5
465
330
1F
100
AcDbEntity
  8
C-A
  6
Continuous
 62
     3
370
     9
100
AcDbLine
 10
-664.3880692682302
 20
725.9422303671483
 30
0.0
 11
-658.3883958887964
 21
725.9422303671483
 31
0.0
  0
LINE
  5
466
330
1F
100
AcDbEntity
  8
C-A
  6
Continuous
 62
     3
370
     9
100
AcDbLine
 10
-678.3885855926604
 20
725.9422303671483
 30
0.0
 11
-672.3879224539354
 21
725.9422303671483
 31
0.0
  0
LINE
  5
467
330
1F
100
AcDbEntity
  8
C-A
  6
Continuous
 62
     3
370
     9
100
AcDbLine
 10
-692.387988437888
 20
725.9422303671483
 30
0.0
 11
-686.3873252991635
 21
725.9422303671483
 31
0.0
  0
LINE
  5
468
330
1F
100
AcDbEntity
  8
C-A
  6
Continuous
 62
     3
370
     9
100
AcDbLine
 10
-706.3878861627614
 20
725.9422303671483
 30
0.0
 11
-700.3878416235932
 21
725.9422303671483
 31
0.0
  0
LINE
  5
469
330
1F
100
AcDbEntity
  8
C-A
  6
Continuous
 62
     3
370
     9
100
AcDbLine
 10
-720.3879076075464
 20
725.9422303671483
 30
0.0
 11
-714.3873681887328
 21
725.9422303671483
 31
0.0
  0
LINE
  5
46A
330
1F
100
AcDbEntity
  8
C-A
  6
Continuous
 62
     3
370
     9
100
AcDbLine
 10
-734.3869392930401
 20
725.9422303671483
 30
0.0
 11
-728.3872659136063
 21
725.9422303671483
 31
0.0
  0
LINE
  5
46B
330
1F
100
AcDbEntity
  8
C-A
  6
Continuous
 62
     3
370
     9
100
AcDbLine
 10
-748.3873318975589
 20
725.9422303671483
 30
0.0
 11
-742.3871636384791
 21
725.9422303671483
 31
0.0
  0
LINE
  5
46C
330
1F
100
AcDbEntity
  8
C-A
  6
Continuous
 62
     3
370
     9
100
AcDbLine
 10
-762.3868584626979
 20
725.9422303671483
 30
0.0
 11
-756.3861953239734
 21
725.9422303671483
 31
0.0
  0
LINE
  5
46D
330
1F
100
AcDbEntity
  8
C-A
  6
Continuous
 62
     3
370
     9
100
AcDbLine
 10
-776.386261307926
 20
725.9422303671483
 30
0.0
 11
-770.3867116484037
 21
725.9422303671483
 31
0.0
  0
LINE
  5
46E
330
1F
100
AcDbEntity
  8
C-A
  6
Continuous
 62
     3
370
     9
100
AcDbLine
 10
-790.3867776323563
 20
725.9422303671483
 30
0.0
 11
-784.3861144936312
 21
725.9422303671483
 31
0.0
  0
LINE
  5
46F
330
1F
100
AcDbEntity
  8
C-A
  6
Continuous
 62
     3
370
     9
100
AcDbLine
 10
-804.3861804775844
 20
725.9422303671483
 30
0.0
 11
-798.3866308180615
 21
725.9422303671483
 31
0.0
  0
LINE
  5
470
330
1F
100
AcDbEntity
  8
C-A
  6
Continuous
 62
     3
370
     9
100
AcDbLine
 10
-818.3866968020141
 20
725.9422303671483
 30
0.0
 11
-812.3860336632896
 21
725.9422303671483
 31
0.0
  0
LINE
  5
471
330
1F
100
AcDbEntity
  8
C-A
  6
Continuous
 62
     3
370
     9
100
AcDbLine
 10
-832.3867182467984
 20
725.9422303671483
 30
0.0
 11
-826.3865499877193
 21
725.9422303671483
 31
0.0
  0
LINE
  5
472
330
1F
100
AcDbEntity
  8
C-A
  6
Continuous
 62
     3
370
     9
100
AcDbLine
 10
-846.3861210920265
 20
725.9422303671483
 30
0.0
 11
-840.3864477125927
 21
725.9422303671483
 31
0.0
  0
LINE
  5
473
330
1F
100
AcDbEntity
  8
C-A
  6
Continuous
 62
     3
370
     9
100
AcDbLine
 10
-860.3865136965453
 20
725.9422303671483
 30
0.0
 11
-854.3864691573771
 21
725.9422303671483
 31
0.0
  0
LINE
  5
474
330
1F
100
AcDbEntity
  8
C-A
  6
Continuous
 62
     3
370
     9
100
AcDbLine
 10
-874.3860402616849
 20
725.9422303671483
 30
0.0
 11
-868.386490602162
 21
725.9422303671483
 31
0.0
  0
LINE
  5
475
330
1F
100
AcDbEntity
  8
C-A
  6
Continuous
 62
     3
370
     9
100
AcDbLine
 10
-888.3865565861146
 20
725.9422303671483
 30
0.0
 11
-882.3858934473901
 21
725.9422303671483
 31
0.0
  0
LINE
  5
476
330
1F
100
AcDbEntity
  8
C-A
  6
Continuous
 62
     3
370
     9
100
AcDbLine
 10
-902.3859594313427
 20
725.9422303671483
 30
0.0
 11
-896.3862860519083
 21
725.9422303671483
 31
0.0
  0
LINE
  5
477
330
1F
100
AcDbEntity
  8
C-A
  6
Continuous
 62
     3
370
     9
100
AcDbLine
 10
-916.3864757557724
 20
725.9422303671483
 30
0.0
 11
-910.3858126170479
 21
725.9422303671483
 31
0.0
  0
LINE
  5
478
330
1F
100
AcDbEntity
  8
C-A
  6
Continuous
 62
     3
370
     9
100
AcDbLine
 10
-524.3820399845521
 20
825.9423128470893
 30
0.0
 11
-518.3823666051177
 21
825.9423128470893
 31
0.0
  0
LINE
  5
479
330
1F
100
AcDbEntity
  8
C-A
  6
Continuous
 62
     3
370
     9
100
AcDbLine
 10
-538.3858967465875
 20
825.9423128470893
 30
0.0
 11
-532.3862233671537
 21
825.9423128470893
 31
0.0
  0
LINE
  5
47A
330
1F
100
AcDbEntity
  8
C-A
  6
Continuous
 62
     3
370
     9
100
AcDbLine
 10
-930.3858786010005
 20
825.9423128470893
 30
0.0
 11
-924.3863289414776
 21
825.9423128470893
 31
0.0
  0
LINE
  5
47B
330
1F
100
AcDbEntity
  8
C-A
  6
Continuous
 62
     3
370
     9
100
AcDbLine
 10
-552.3897535086229
 20
825.9423128470893
 30
0.0
 11
-546.3902038491
 21
825.9423128470893
 31
0.0
  0
LINE
  5
47C
330
1F
100
AcDbEntity
  8
C-A
  6
Continuous
 62
     3
370
     9
100
AcDbLine
 10
-566.3902698330531
 20
825.9423128470893
 30
0.0
 11
-560.3902252938849
 21
825.9423128470893
 31
0.0
  0
LINE
  5
47D
330
1F
100
AcDbEntity
  8
C-A
  6
Continuous
 62
     3
370
     9
100
AcDbLine
 10
-580.3897963981922
 20
825.9423128470893
 30
0.0
 11
-574.3891332594677
 21
825.9423128470893
 31
0.0
  0
LINE
  5
47E
330
1F
100
AcDbEntity
  8
C-A
  6
Continuous
 62
     3
370
     9
100
AcDbLine
 10
-594.3891992434203
 20
825.9423128470893
 30
0.0
 11
-588.3895258639859
 21
825.9423128470893
 31
0.0
  0
LINE
  5
47F
330
1F
100
AcDbEntity
  8
C-A
  6
Continuous
 62
     3
370
     9
100
AcDbLine
 10
-608.38971556785
 20
825.9423128470893
 30
0.0
 11
-602.3890524291255
 21
825.9423128470893
 31
0.0
  0
LINE
  5
480
330
1F
100
AcDbEntity
  8
C-A
  6
Continuous
 62
     3
370
     9
100
AcDbLine
 10
-622.3891184130781
 20
825.9423128470893
 30
0.0
 11
-616.3885789942651
 21
825.9423128470893
 31
0.0
  0
LINE
  5
481
330
1F
100
AcDbEntity
  8
C-A
  6
Continuous
 62
     3
370
     9
100
AcDbLine
 10
-636.389139857863
 20
825.9423128470893
 30
0.0
 11
-630.3889715987833
 21
825.9423128470893
 31
0.0
  0
LINE
  5
482
330
1F
100
AcDbEntity
  8
C-A
  6
Continuous
 62
     3
370
     9
100
AcDbLine
 10
-650.3885427030912
 20
825.9423128470893
 30
0.0
 11
-644.3884981639229
 21
825.9423128470893
 31
0.0
  0
LINE
  5
483
330
1F
100
AcDbEntity
  8
C-A
  6
Continuous
 62
     3
370
     9
100
AcDbLine
 10
-664.3880692682302
 20
825.9423128470893
 30
0.0
 11
-658.3883958887964
 21
825.9423128470893
 31
0.0
  0
LINE
  5
484
330
1F
100
AcDbEntity
  8
C-A
  6
Continuous
 62
     3
370
     9
100
AcDbLine
 10
-678.3885855926604
 20
825.9423128470893
 30
0.0
 11
-672.3879224539354
 21
825.9423128470893
 31
0.0
  0
LINE
  5
485
330
1F
100
AcDbEntity
  8
C-A
  6
Continuous
 62
     3
370
     9
100
AcDbLine
 10
-692.387988437888
 20
825.9423128470893
 30
0.0
 11
-686.3873252991635
 21
825.9423128470893
 31
0.0
  0
LINE
  5
486
330
1F
100
AcDbEntity
  8
C-A
  6
Continuous
 62
     3
370
     9
100
AcDbLine
 10
-706.3878861627614
 20
825.9423128470893
 30
0.0
 11
-700.3878416235932
 21
825.9423128470893
 31
0.0
  0
LINE
  5
487
330
1F
100
AcDbEntity
  8
C-A
  6
Continuous
 62
     3
370
     9
100
AcDbLine
 10
-720.3879076075464
 20
825.9423128470893
 30
0.0
 11
-714.3873681887328
 21
825.9423128470893
 31
0.0
  0
LINE
  5
488
330
1F
100
AcDbEntity
  8
C-A
  6
Continuous
 62
     3
370
     9
100
AcDbLine
 10
-734.3869392930401
 20
825.9423128470893
 30
0.0
 11
-728.3872659136063
 21
825.9423128470893
 31
0.0
  0
LINE
  5
489
330
1F
100
AcDbEntity
  8
C-A
  6
Continuous
 62
     3
370
     9
100
AcDbLine
 10
-748.3873318975589
 20
825.9423128470893
 30
0.0
 11
-742.3871636384791
 21
825.9423128470893
 31
0.0
  0
LINE
  5
48A
330
1F
100
AcDbEntity
  8
C-A
  6
Continuous
 62
     3
370
     9
100
AcDbLine
 10
-762.3868584626979
 20
825.9423128470893
 30
0.0
 11
-756.3861953239734
 21
825.9423128470893
 31
0.0
  0
LINE
  5
48B
330
1F
100
AcDbEntity
  8
C-A
  6
Continuous
 62
     3
370
     9
100
AcDbLine
 10
-776.386261307926
 20
825.9423128470893
 30
0.0
 11
-770.3867116484037
 21
825.9423128470893
 31
0.0
  0
LINE
  5
48C
330
1F
100
AcDbEntity
  8
C-A
  6
Continuous
 62
     3
370
     9
100
AcDbLine
 10
-790.3867776323563
 20
825.9423128470893
 30
0.0
 11
-784.3861144936312
 21
825.9423128470893
 31
0.0
  0
LINE
  5
48D
330
1F
100
AcDbEntity
  8
C-A
  6
Continuous
 62
     3
370
     9
100
AcDbLine
 10
-804.3861804775844
 20
825.9423128470893
 30
0.0
 11
-798.3866308180615
 21
825.9423128470893
 31
0.0
  0
LINE
  5
48E
330
1F
100
AcDbEntity
  8
C-A
  6
Continuous
 62
     3
370
     9
100
AcDbLine
 10
-818.3866968020141
 20
825.9423128470893
 30
0.0
 11
-812.3860336632896
 21
825.9423128470893
 31
0.0
  0
LINE
  5
48F
330
1F
100
AcDbEntity
  8
C-A
  6
Continuous
 62
     3
370
     9
100
AcDbLine
 10
-832.3867182467984
 20
825.9423128470893
 30
0.0
 11
-826.3865499877193
 21
825.9423128470893
 31
0.0
  0
LINE
  5
490
330
1F
100
AcDbEntity
  8
C-A
  6
Continuous
 62
     3
370
     9
100
AcDbLine
 10
-846.3861210920265
 20
825.9423128470893
 30
0.0
 11
-840.3864477125927
 21
825.9423128470893
 31
0.0
  0
LINE
  5
491
330
1F
100
AcDbEntity
  8
C-A
  6
Continuous
 62
     3
370
     9
100
AcDbLine
 10
-860.3865136965453
 20
825.9423128470893
 30
0.0
 11
-854.3864691573771
 21
825.9423128470893
 31
0.0
  0
LINE
  5
492
330
1F
100
AcDbEntity
  8
C-A
  6
Continuous
 62
     3
370
     9
100
AcDbLine
 10
-874.3860402616849
 20
825.9423128470893
 30
0.0
 11
-868.386490602162
 21
825.9423128470893
 31
0.0
  0
LINE
  5
493
330
1F
100
AcDbEntity
  8
C-A
  6
Continuous
 62
     3
370
     9
100
AcDbLine
 10
-888.3865565861146
 20
825.9423128470893
 30
0.0
 11
-882.3858934473901
 21
825.9423128470893
 31
0.0
  0
LINE
  5
494
330
1F
100
AcDbEntity
  8
C-A
  6
Continuous
 62
     3
370
     9
100
AcDbLine
 10
-902.3859594313427
 20
825.9423128470893
 30
0.0
 11
-896.3862860519083
 21
825.9423128470893
 31
0.0
  0
LINE
  5
495
330
1F
100
AcDbEntity
  8
C-A
  6
Continuous
 62
     3
370
     9
100
AcDbLine
 10
-916.3864757557724
 20
825.9423128470893
 30
0.0
 11
-910.3858126170479
 21
825.9423128470893
 31
0.0
  0
LINE
  5
496
330
1F
100
AcDbEntity
  8
C-A
  6
Continuous
 62
     3
370
     9
100
AcDbLine
 10
-720.3854332093198
 20
428.9423144966879
 30
0.0
 11
-720.3854332093198
 21
922.9421874775791
 31
0.0
  0
LINE
  5
497
330
1F
100
AcDbEntity
  8
C-A
  6
Continuous
 62
     3
370
     9
100
AcDbLine
 10
-728.385286395025
 20
428.9423144966879
 30
0.0
 11
-728.385286395025
 21
922.9421874775791
 31
0.0
  0
LINE
  5
498
330
1F
100
AcDbEntity
  8
C-A
  6
Continuous
 62
     3
370
     9
100
AcDbLine
 10
-734.3859495337495
 20
428.9423144966879
 30
0.0
 11
-734.3859495337495
 21
922.9421874775791
 31
0.0
  0
LINE
  5
499
330
1F
100
AcDbEntity
  8
C-A
  6
Continuous
 62
     3
370
     9
100
AcDbLine
 10
-742.3856789995438
 20
428.9423144966879
 30
0.0
 11
-742.3856789995438
 21
922.9421874775791
 31
0.0
  0
LINE
  5
49A
330
1F
100
AcDbEntity
  8
C-A
  6
Continuous
 62
     3
370
     9
100
AcDbLine
 10
-748.3858472586229
 20
428.9423144966879
 30
0.0
 11
-748.3858472586229
 21
922.9421874775791
 31
0.0
  0
LINE
  5
49B
330
1F
100
AcDbEntity
  8
C-A
  6
Continuous
 62
     3
370
     9
100
AcDbLine
 10
-756.3852055646828
 20
428.9423144966879
 30
0.0
 11
-756.3852055646828
 21
922.9421874775791
 31
0.0
  0
LINE
  5
49C
330
1F
100
AcDbEntity
  8
C-A
  6
Continuous
 62
     3
370
     9
100
AcDbLine
 10
-762.3858687034078
 20
428.9423144966879
 30
0.0
 11
-762.3858687034078
 21
922.9421874775791
 31
0.0
  0
LINE
  5
49D
330
1F
100
AcDbEntity
  8
C-A
  6
Continuous
 62
     3
370
     9
100
AcDbLine
 10
-770.385721889113
 20
428.9423144966879
 30
0.0
 11
-770.385721889113
 21
922.9421874775791
 31
0.0
  0
LINE
  5
49E
330
1F
100
AcDbEntity
  8
C-A
  6
Continuous
 62
     3
370
     9
100
AcDbLine
 10
-776.386261307926
 20
428.9423144966879
 30
0.0
 11
-776.386261307926
 21
922.9421874775791
 31
0.0
  0
LINE
  5
49F
330
1F
100
AcDbEntity
  8
C-A
  6
Continuous
 62
     3
370
     9
100
AcDbLine
 10
-784.3861144936312
 20
428.9423144966879
 30
0.0
 11
-784.3861144936312
 21
922.9421874775791
 31
0.0
  0
LINE
  5
4A0
330
1F
100
AcDbEntity
  8
C-A
  6
Continuous
 62
     3
370
     9
100
AcDbLine
 10
-790.3862827527109
 20
428.9423144966879
 30
0.0
 11
-790.3862827527109
 21
922.9421874775791
 31
0.0
  0
LINE
  5
4A1
330
1F
100
AcDbEntity
  8
C-A
  6
Continuous
 62
     3
370
     9
100
AcDbLine
 10
-798.3861359384161
 20
428.9423144966879
 30
0.0
 11
-798.3861359384161
 21
922.9421874775791
 31
0.0
  0
LINE
  5
4A2
330
1F
100
AcDbEntity
  8
C-A
  6
Continuous
 62
     3
370
     9
100
AcDbLine
 10
-804.3856855979391
 20
428.9423144966879
 30
0.0
 11
-804.3856855979391
 21
922.9421874775791
 31
0.0
  0
LINE
  5
4A3
330
1F
100
AcDbEntity
  8
C-A
  6
Continuous
 62
     3
370
     9
100
AcDbLine
 10
-812.3855387836443
 20
428.9423144966879
 30
0.0
 11
-812.3855387836443
 21
922.9421874775791
 31
0.0
  0
LINE
  5
4A4
330
1F
100
AcDbEntity
  8
C-A
  6
Continuous
 62
     3
370
     9
100
AcDbLine
 10
-818.3852121630781
 20
428.9423144966879
 30
0.0
 11
-818.3852121630781
 21
922.9421874775791
 31
0.0
  0
LINE
  5
4A5
330
1F
100
AcDbEntity
  8
C-A
  6
Continuous
 62
     3
370
     9
100
AcDbLine
 10
-826.3850653487833
 20
428.9423144966879
 30
0.0
 11
-826.3850653487833
 21
922.9421874775791
 31
0.0
  0
LINE
  5
4A6
330
1F
100
AcDbEntity
  8
C-A
  6
Continuous
 62
     3
370
     9
100
AcDbLine
 10
-832.3857284875083
 20
428.9423144966879
 30
0.0
 11
-832.3857284875083
 21
922.9421874775791
 31
0.0
  0
LINE
  5
4A7
330
1F
100
AcDbEntity
  8
C-A
  6
Continuous
 62
     3
370
     9
100
AcDbLine
 10
-840.3859528329474
 20
428.9423144966879
 30
0.0
 11
-840.3859528329474
 21
922.9421874775791
 31
0.0
  0
LINE
  5
4A8
330
1F
100
AcDbEntity
  8
C-A
  6
Continuous
 62
     3
370
     9
100
AcDbLine
 10
-846.3861210920265
 20
428.9423144966879
 30
0.0
 11
-846.3861210920265
 21
922.9421874775791
 31
0.0
  0
LINE
  5
4A9
330
1F
100
AcDbEntity
  8
C-A
  6
Continuous
 62
     3
370
     9
100
AcDbLine
 10
-854.3859742777317
 20
428.9423144966879
 30
0.0
 11
-854.3859742777317
 21
922.9421874775791
 31
0.0
  0
LINE
  5
4AA
330
1F
100
AcDbEntity
  8
C-A
  6
Continuous
 62
     3
370
     9
100
AcDbLine
 10
-860.3855239372547
 20
428.9423144966879
 30
0.0
 11
-860.3855239372547
 21
922.9421874775791
 31
0.0
  0
LINE
  5
4AB
330
1F
100
AcDbEntity
  8
C-A
  6
Continuous
 62
     3
370
     9
100
AcDbLine
 10
-868.3855008428714
 20
428.9423144966879
 30
0.0
 11
-868.3855008428714
 21
922.9421874775791
 31
0.0
  0
LINE
  5
4AC
330
1F
100
AcDbEntity
  8
C-A
  6
Continuous
 62
     3
370
     9
100
AcDbLine
 10
-874.3850505023943
 20
428.9423144966879
 30
0.0
 11
-874.3850505023943
 21
922.9421874775791
 31
0.0
  0
LINE
  5
4AD
330
1F
100
AcDbEntity
  8
C-A
  6
Continuous
 62
     3
370
     9
100
AcDbLine
 10
-882.3849036880995
 20
428.9423144966879
 30
0.0
 11
-882.3849036880995
 21
922.9421874775791
 31
0.0
  0
LINE
  5
4AE
330
1F
100
AcDbEntity
  8
C-A
  6
Continuous
 62
     3
370
     9
100
AcDbLine
 10
-888.385566826824
 20
428.9423144966879
 30
0.0
 11
-888.385566826824
 21
922.9421874775791
 31
0.0
  0
LINE
  5
4AF
330
1F
100
AcDbEntity
  8
C-A
  6
Continuous
 62
     3
370
     9
100
AcDbLine
 10
-896.3852962926177
 20
428.9423144966879
 30
0.0
 11
-896.3852962926177
 21
922.9421874775791
 31
0.0
  0
LINE
  5
4B0
330
1F
100
AcDbEntity
  8
C-A
  6
Continuous
 62
     3
370
     9
100
AcDbLine
 10
-902.3859594313427
 20
428.9423144966879
 30
0.0
 11
-902.3859594313427
 21
922.9421874775791
 31
0.0
  0
LINE
  5
4B1
330
1F
100
AcDbEntity
  8
C-A
  6
Continuous
 62
     3
370
     9
100
AcDbLine
 10
-910.3858126170479
 20
428.9423144966879
 30
0.0
 11
-910.3858126170479
 21
922.9421874775791
 31
0.0
  0
LINE
  5
4B2
330
1F
100
AcDbEntity
  8
C-A
  6
Continuous
 62
     3
370
     9
100
AcDbLine
 10
-916.3859808761271
 20
428.9423144966879
 30
0.0
 11
-916.3859808761271
 21
922.9421874775791
 31
0.0
  0
LINE
  5
4B3
330
1F
100
AcDbEntity
  8
C-A
  6
Continuous
 62
     3
370
     9
100
AcDbLine
 10
-924.385339182187
 20
428.9423144966879
 30
0.0
 11
-924.385339182187
 21
922.9421874775791
 31
0.0
  0
LINE
  5
4B4
330
1F
100
AcDbEntity
  8
C-A
  6
Continuous
 62
     3
370
     9
100
AcDbLine
 10
-930.3853837213552
 20
428.9423144966879
 30
0.0
 11
-930.3853837213552
 21
922.9421874775791
 31
0.0
  0
LINE
  5
4B5
330
1F
100
AcDbEntity
  8
C-A
  6
Continuous
 62
     3
370
     9
100
AcDbLine
 10
-938.3852369070604
 20
428.9423144966879
 30
0.0
 11
-938.3852369070604
 21
922.9421874775791
 31
0.0
  0
LINE
  5
4B6
330
1F
100
AcDbEntity
  8
C-A
  6
Continuous
 62
     3
370
     9
100
AcDbLine
 10
-944.3849102864948
 20
428.9423144966879
 30
0.0
 11
-944.3849102864948
 21
922.9421874775791
 31
0.0
  0
LINE
  5
4B7
330
1F
100
AcDbEntity
  8
C-2
  6
Continuous
 62
     3
370
     9
100
AcDbLine
 10
-468.3771291288718
 20
925.9421478872075
 30
0.0
 11
-468.3771291288718
 21
425.9421066472368
 31
0.0
  0
LINE
  5
4B8
330
1F
100
AcDbEntity
  8
C-2
  6
Continuous
 62
     3
370
     9
100
AcDbLine
 10
-468.3771291288718
 20
425.9421066472368
 30
0.0
 11
-966.3765517692857
 21
425.9421066472368
 31
0.0
  0
LINE
  5
4B9
330
1F
100
AcDbEntity
  8
C-2
  6
Continuous
 62
     3
370
     9
100
AcDbLine
 10
-966.3765517692857
 20
425.9421066472368
 30
0.0
 11
-966.3765517692857
 21
925.9421478872075
 31
0.0
  0
LINE
  5
4BA
330
1F
100
AcDbEntity
  8
C-2
  6
Continuous
 62
     3
370
     9
100
AcDbLine
 10
-468.3771291288718
 20
925.9421478872075
 30
0.0
 11
-966.3765517692857
 21
925.9421478872075
 31
0.0
  0
LINE
  5
4BB
330
1F
100
AcDbEntity
  8
C-A
  6
Continuous
 62
     3
370
     9
100
AcDbLine
 10
-468.3771291288718
 20
922.9421874775791
 30
0.0
 11
-966.3765517692857
 21
922.9421874775791
 31
0.0
  0
LINE
  5
4BC
330
1F
100
AcDbEntity
  8
C-A
  6
Continuous
 62
     3
370
     9
100
AcDbLine
 10
-958.3766985835805
 20
428.9423144966879
 30
0.0
 11
-958.3766985835805
 21
922.9421874775791
 31
0.0
  0
LINE
  5
4BD
330
1F
100
AcDbEntity
  8
C-A
  6
Continuous
 62
     3
370
     9
100
AcDbLine
 10
-952.3849102864947
 20
428.9423144966879
 30
0.0
 11
-952.3849102864947
 21
922.9421874775791
 31
0.0
  0
LINE
  5
4BE
330
1F
100
AcDbEntity
  8
C-A
  6
Continuous
 62
     3
370
     9
100
AcDbLine
 10
-958.3766985835805
 20
825.9423128470893
 30
0.0
 11
-952.3849102864947
 21
825.9423128470893
 31
0.0
  0
LINE
  5
4BF
330
1F
100
AcDbEntity
  8
C-A
  6
Continuous
 62
     3
370
     9
100
AcDbLine
 10
-958.3766985835805
 20
725.942477806971
 30
0.0
 11
-952.3849102864947
 21
725.942477806971
 31
0.0
  0
LINE
  5
4C0
330
1F
100
AcDbEntity
  8
C-A
  6
Continuous
 62
     3
370
     9
100
AcDbLine
 10
-958.3766985835805
 20
625.9421478872075
 30
0.0
 11
-952.3849102864947
 21
625.9421478872075
 31
0.0
  0
LINE
  5
4C1
330
1F
100
AcDbEntity
  8
C-A
  6
Continuous
 62
     3
370
     9
100
AcDbLine
 10
-958.3766985835805
 20
525.9421891271777
 30
0.0
 11
-952.3849102864947
 21
525.9421891271777
 31
0.0
  0
LINE
  5
4C2
330
1F
100
AcDbEntity
  8
C-A
  6
Continuous
 62
     3
370
     9
100
AcDbLine
 10
-538.4022277748812
 20
622.3919004473848
 30
0.0
 11
-532.3971107193495
 21
622.3919004473848
 31
0.0
  0
LINE
  5
4C3
330
1F
100
AcDbEntity
  8
C-A
  6
Continuous
 62
     3
370
     9
100
AcDbLine
 10
-552.3981664625927
 20
622.3919004473848
 30
0.0
 11
-546.3936680066172
 21
622.3919004473848
 31
0.0
  0
LINE
  5
4C4
330
1F
100
AcDbEntity
  8
C-A
  6
Continuous
 62
     3
370
     9
100
AcDbLine
 10
-566.3942288702151
 20
622.3919004473848
 30
0.0
 11
-560.3897304142396
 21
622.3919004473848
 31
0.0
  0
LINE
  5
4C5
330
1F
100
AcDbEntity
  8
C-A
  6
Continuous
 62
     3
370
     9
100
AcDbLine
 10
-580.3897963981922
 20
622.3919004473848
 30
0.0
 11
-574.3856691019505
 21
622.3919004473848
 31
0.0
  0
LINE
  5
4C6
330
1F
100
AcDbEntity
  8
C-A
  6
Continuous
 62
     3
370
     9
100
AcDbLine
 10
-944.3849102864948
 20
622.3919004473848
 30
0.0
 11
-938.3852369070604
 21
622.3919004473848
 31
0.0
  0
LINE
  5
4C7
330
1F
100
AcDbEntity
  8
C-A
  6
Continuous
 62
     3
370
     9
100
AcDbLine
 10
-930.3858786010005
 20
622.3919004473848
 30
0.0
 11
-924.3863289414776
 21
622.3919004473848
 31
0.0
  0
LINE
  5
4C8
330
1F
100
AcDbEntity
  8
C-A
  6
Continuous
 62
     3
370
     9
100
AcDbLine
 10
-594.3891992434203
 20
622.3919004473848
 30
0.0
 11
-588.3895258639859
 21
622.3919004473848
 31
0.0
  0
LINE
  5
4C9
330
1F
100
AcDbEntity
  8
C-A
  6
Continuous
 62
     3
370
     9
100
AcDbLine
 10
-608.38971556785
 20
622.3919004473848
 30
0.0
 11
-602.3890524291255
 21
622.3919004473848
 31
0.0
  0
LINE
  5
4CA
330
1F
100
AcDbEntity
  8
C-A
  6
Continuous
 62
     3
370
     9
100
AcDbLine
 10
-622.3891184130781
 20
622.3919004473848
 30
0.0
 11
-616.3885789942651
 21
622.3919004473848
 31
0.0
  0
LINE
  5
4CB
330
1F
100
AcDbEntity
  8
C-A
  6
Continuous
 62
     3
370
     9
100
AcDbLine
 10
-636.389139857863
 20
622.3919004473848
 30
0.0
 11
-630.3889715987833
 21
622.3919004473848
 31
0.0
  0
LINE
  5
4CC
330
1F
100
AcDbEntity
  8
C-A
  6
Continuous
 62
     3
370
     9
100
AcDbLine
 10
-650.3885427030912
 20
622.3919004473848
 30
0.0
 11
-644.3884981639229
 21
622.3919004473848
 31
0.0
  0
LINE
  5
4CD
330
1F
100
AcDbEntity
  8
C-A
  6
Continuous
 62
     3
370
     9
100
AcDbLine
 10
-664.3880692682302
 20
622.3919004473848
 30
0.0
 11
-658.3883958887964
 21
622.3919004473848
 31
0.0
  0
LINE
  5
4CE
330
1F
100
AcDbEntity
  8
C-A
  6
Continuous
 62
     3
370
     9
100
AcDbLine
 10
-678.3885855926604
 20
622.3919004473848
 30
0.0
 11
-672.3879224539354
 21
622.3919004473848
 31
0.0
  0
LINE
  5
4CF
330
1F
100
AcDbEntity
  8
C-A
  6
Continuous
 62
     3
370
     9
100
AcDbLine
 10
-692.387988437888
 20
622.3919004473848
 30
0.0
 11
-686.3873252991635
 21
622.3919004473848
 31
0.0
  0
LINE
  5
4D0
330
1F
100
AcDbEntity
  8
C-A
  6
Continuous
 62
     3
370
     9
100
AcDbLine
 10
-706.3878861627614
 20
622.3919004473848
 30
0.0
 11
-700.3878416235932
 21
622.3919004473848
 31
0.0
  0
LINE
  5
4D1
330
1F
100
AcDbEntity
  8
C-A
  6
Continuous
 62
     3
370
     9
100
AcDbLine
 10
-720.3879076075464
 20
622.3919004473848
 30
0.0
 11
-714.3873681887328
 21
622.3919004473848
 31
0.0
  0
LINE
  5
4D2
330
1F
100
AcDbEntity
  8
C-A
  6
Continuous
 62
     3
370
     9
100
AcDbLine
 10
-734.3869392930401
 20
622.3919004473848
 30
0.0
 11
-728.3872659136063
 21
622.3919004473848
 31
0.0
  0
LINE
  5
4D3
330
1F
100
AcDbEntity
  8
C-A
  6
Continuous
 62
     3
370
     9
100
AcDbLine
 10
-748.3873318975589
 20
622.3919004473848
 30
0.0
 11
-742.3871636384791
 21
622.3919004473848
 31
0.0
  0
LINE
  5
4D4
330
1F
100
AcDbEntity
  8
C-A
  6
Continuous
 62
     3
370
     9
100
AcDbLine
 10
-762.3868584626979
 20
622.3919004473848
 30
0.0
 11
-756.3861953239734
 21
622.3919004473848
 31
0.0
  0
LINE
  5
4D5
330
1F
100
AcDbEntity
  8
C-A
  6
Continuous
 62
     3
370
     9
100
AcDbLine
 10
-776.386261307926
 20
622.3919004473848
 30
0.0
 11
-770.3867116484037
 21
622.3919004473848
 31
0.0
  0
LINE
  5
4D6
330
1F
100
AcDbEntity
  8
C-A
  6
Continuous
 62
     3
370
     9
100
AcDbLine
 10
-790.3867776323563
 20
622.3919004473848
 30
0.0
 11
-784.3861144936312
 21
622.3919004473848
 31
0.0
  0
LINE
  5
4D7
330
1F
100
AcDbEntity
  8
C-A
  6
Continuous
 62
     3
370
     9
100
AcDbLine
 10
-804.3861804775844
 20
622.3919004473848
 30
0.0
 11
-798.3866308180615
 21
622.3919004473848
 31
0.0
  0
LINE
  5
4D8
330
1F
100
AcDbEntity
  8
C-A
  6
Continuous
 62
     3
370
     9
100
AcDbLine
 10
-818.3866968020141
 20
622.3919004473848
 30
0.0
 11
-812.3860336632896
 21
622.3919004473848
 31
0.0
  0
LINE
  5
4D9
330
1F
100
AcDbEntity
  8
C-A
  6
Continuous
 62
     3
370
     9
100
AcDbLine
 10
-832.3867182467984
 20
622.3919004473848
 30
0.0
 11
-826.3865499877193
 21
622.3919004473848
 31
0.0
  0
LINE
  5
4DA
330
1F
100
AcDbEntity
  8
C-A
  6
Continuous
 62
     3
370
     9
100
AcDbLine
 10
-846.3861210920265
 20
622.3919004473848
 30
0.0
 11
-840.3864477125927
 21
622.3919004473848
 31
0.0
  0
LINE
  5
4DB
330
1F
100
AcDbEntity
  8
C-A
  6
Continuous
 62
     3
370
     9
100
AcDbLine
 10
-860.3865136965453
 20
622.3919004473848
 30
0.0
 11
-854.3864691573771
 21
622.3919004473848
 31
0.0
  0
LINE
  5
4DC
330
1F
100
AcDbEntity
  8
C-A
  6
Continuous
 62
     3
370
     9
100
AcDbLine
 10
-874.3860402616849
 20
622.3919004473848
 30
0.0
 11
-868.386490602162
 21
622.3919004473848
 31
0.0
  0
LINE
  5
4DD
330
1F
100
AcDbEntity
  8
C-A
  6
Continuous
 62
     3
370
     9
100
AcDbLine
 10
-888.3865565861146
 20
622.3919004473848
 30
0.0
 11
-882.3858934473901
 21
622.3919004473848
 31
0.0
  0
LINE
  5
4DE
330
1F
100
AcDbEntity
  8
C-A
  6
Continuous
 62
     3
370
     9
100
AcDbLine
 10
-902.3859594313427
 20
622.3919004473848
 30
0.0
 11
-896.3862860519083
 21
622.3919004473848
 31
0.0
  0
LINE
  5
4DF
330
1F
100
AcDbEntity
  8
C-A
  6
Continuous
 62
     3
370
     9
100
AcDbLine
 10
-916.3864757557724
 20
622.3919004473848
 30
0.0
 11
-910.3858126170479
 21
622.3919004473848
 31
0.0
  0
LINE
  5
4E0
330
1F
100
AcDbEntity
  8
C-A
  6
Continuous
 62
     3
370
     9
100
AcDbLine
 10
-958.3766985835805
 20
622.3919004473848
 30
0.0
 11
-952.3849102864947
 21
622.3919004473848
 31
0.0
  0
LINE
  5
4E1
330
1F
100
AcDbEntity
  8
C-A
  6
Continuous
 62
     3
370
     9
100
AcDbLine
 10
-636.3871603392818
 20
529.4920654072665
 30
0.0
 11
-630.3874869598474
 21
529.4920654072665
 31
0.0
  0
LINE
  5
4E2
330
1F
100
AcDbEntity
  8
C-A
  6
Continuous
 62
     3
370
     9
100
AcDbLine
 10
-650.3875529438005
 20
529.4920654072665
 30
0.0
 11
-644.387013524987
 21
529.4920654072665
 31
0.0
  0
LINE
  5
4E3
330
1F
100
AcDbEntity
  8
C-A
  6
Continuous
 62
     3
370
     9
100
AcDbLine
 10
-664.3880692682302
 20
529.4920654072665
 30
0.0
 11
-658.3874061295057
 21
529.4920654072665
 31
0.0
  0
LINE
  5
4E4
330
1F
100
AcDbEntity
  8
C-A
  6
Continuous
 62
     3
370
     9
100
AcDbLine
 10
-678.3875958333698
 20
529.4920654072665
 30
0.0
 11
-672.3879224539354
 21
529.4920654072665
 31
0.0
  0
LINE
  5
4E5
330
1F
100
AcDbEntity
  8
C-A
  6
Continuous
 62
     3
370
     9
100
AcDbLine
 10
-944.3849102864948
 20
529.4920654072665
 30
0.0
 11
-938.3852369070604
 21
529.4920654072665
 31
0.0
  0
LINE
  5
4E6
330
1F
100
AcDbEntity
  8
C-A
  6
Continuous
 62
     3
370
     9
100
AcDbLine
 10
-930.3858786010005
 20
529.4920654072665
 30
0.0
 11
-924.3863289414776
 21
529.4920654072665
 31
0.0
  0
LINE
  5
4E7
330
1F
100
AcDbEntity
  8
C-A
  6
Continuous
 62
     3
370
     9
100
AcDbLine
 10
-692.387988437888
 20
529.4920654072665
 30
0.0
 11
-686.3873252991635
 21
529.4920654072665
 31
0.0
  0
LINE
  5
4E8
330
1F
100
AcDbEntity
  8
C-A
  6
Continuous
 62
     3
370
     9
100
AcDbLine
 10
-706.3878861627614
 20
529.4920654072665
 30
0.0
 11
-700.3878416235932
 21
529.4920654072665
 31
0.0
  0
LINE
  5
4E9
330
1F
100
AcDbEntity
  8
C-A
  6
Continuous
 62
     3
370
     9
100
AcDbLine
 10
-720.3879076075464
 20
529.4920654072665
 30
0.0
 11
-714.3873681887328
 21
529.4920654072665
 31
0.0
  0
LINE
  5
4EA
330
1F
100
AcDbEntity
  8
C-A
  6
Continuous
 62
     3
370
     9
100
AcDbLine
 10
-734.3869392930401
 20
529.4920654072665
 30
0.0
 11
-728.3872659136063
 21
529.4920654072665
 31
0.0
  0
LINE
  5
4EB
330
1F
100
AcDbEntity
  8
C-A
  6
Continuous
 62
     3
370
     9
100
AcDbLine
 10
-748.3873318975589
 20
529.4920654072665
 30
0.0
 11
-742.3871636384791
 21
529.4920654072665
 31
0.0
  0
LINE
  5
4EC
330
1F
100
AcDbEntity
  8
C-A
  6
Continuous
 62
     3
370
     9
100
AcDbLine
 10
-762.3868584626979
 20
529.4920654072665
 30
0.0
 11
-756.3861953239734
 21
529.4920654072665
 31
0.0
  0
LINE
  5
4ED
330
1F
100
AcDbEntity
  8
C-A
  6
Continuous
 62
     3
370
     9
100
AcDbLine
 10
-776.386261307926
 20
529.4920654072665
 30
0.0
 11
-770.3867116484037
 21
529.4920654072665
 31
0.0
  0
LINE
  5
4EE
330
1F
100
AcDbEntity
  8
C-A
  6
Continuous
 62
     3
370
     9
100
AcDbLine
 10
-790.3867776323563
 20
529.4920654072665
 30
0.0
 11
-784.3861144936312
 21
529.4920654072665
 31
0.0
  0
LINE
  5
4EF
330
1F
100
AcDbEntity
  8
C-A
  6
Continuous
 62
     3
370
     9
100
AcDbLine
 10
-804.3861804775844
 20
529.4920654072665
 30
0.0
 11
-798.3866308180615
 21
529.4920654072665
 31
0.0
  0
LINE
  5
4F0
330
1F
100
AcDbEntity
  8
C-A
  6
Continuous
 62
     3
370
     9
100
AcDbLine
 10
-818.3866968020141
 20
529.4920654072665
 30
0.0
 11
-812.3860336632896
 21
529.4920654072665
 31
0.0
  0
LINE
  5
4F1
330
1F
100
AcDbEntity
  8
C-A
  6
Continuous
 62
     3
370
     9
100
AcDbLine
 10
-832.3867182467984
 20
529.4920654072665
 30
0.0
 11
-826.3865499877193
 21
529.4920654072665
 31
0.0
  0
LINE
  5
4F2
330
1F
100
AcDbEntity
  8
C-A
  6
Continuous
 62
     3
370
     9
100
AcDbLine
 10
-846.3861210920265
 20
529.4920654072665
 30
0.0
 11
-840.3864477125927
 21
529.4920654072665
 31
0.0
  0
LINE
  5
4F3
330
1F
100
AcDbEntity
  8
C-A
  6
Continuous
 62
     3
370
     9
100
AcDbLine
 10
-860.3865136965453
 20
529.4920654072665
 30
0.0
 11
-854.3864691573771
 21
529.4920654072665
 31
0.0
  0
LINE
  5
4F4
330
1F
100
AcDbEntity
  8
C-A
  6
Continuous
 62
     3
370
     9
100
AcDbLine
 10
-874.3860402616849
 20
529.4920654072665
 30
0.0
 11
-868.386490602162
 21
529.4920654072665
 31
0.0
  0
LINE
  5
4F5
330
1F
100
AcDbEntity
  8
C-A
  6
Continuous
 62
     3
370
     9
100
AcDbLine
 10
-888.3865565861146
 20
529.4920654072665
 30
0.0
 11
-882.3858934473901
 21
529.4920654072665
 31
0.0
  0
LINE
  5
4F6
330
1F
100
AcDbEntity
  8
C-A
  6
Continuous
 62
     3
370
     9
100
AcDbLine
 10
-902.3859594313427
 20
529.4920654072665
 30
0.0
 11
-896.3862860519083
 21
529.4920654072665
 31
0.0
  0
LINE
  5
4F7
330
1F
100
AcDbEntity
  8
C-A
  6
Continuous
 62
     3
370
     9
100
AcDbLine
 10
-916.3864757557724
 20
529.4920654072665
 30
0.0
 11
-910.3858126170479
 21
529.4920654072665
 31
0.0
  0
LINE
  5
4F8
330
1F
100
AcDbEntity
  8
C-A
  6
Continuous
 62
     3
370
     9
100
AcDbLine
 10
-958.3766985835805
 20
529.4920654072665
 30
0.0
 11
-952.3849102864947
 21
529.4920654072665
 31
0.0
  0
LINE
  5
4F9
330
1F
100
AcDbEntity
  8
C-A
  6
Continuous
 62
     3
370
     9
100
AcDbLine
 10
-636.3871603392818
 20
522.392070356063
 30
0.0
 11
-630.3874869598474
 21
522.392070356063
 31
0.0
  0
LINE
  5
4FA
330
1F
100
AcDbEntity
  8
C-A
  6
Continuous
 62
     3
370
     9
100
AcDbLine
 10
-650.3875529438005
 20
522.392070356063
 30
0.0
 11
-644.387013524987
 21
522.392070356063
 31
0.0
  0
LINE
  5
4FB
330
1F
100
AcDbEntity
  8
C-A
  6
Continuous
 62
     3
370
     9
100
AcDbLine
 10
-664.3880692682302
 20
522.392070356063
 30
0.0
 11
-658.3874061295057
 21
522.392070356063
 31
0.0
  0
LINE
  5
4FC
330
1F
100
AcDbEntity
  8
C-A
  6
Continuous
 62
     3
370
     9
100
AcDbLine
 10
-678.3875958333698
 20
522.392070356063
 30
0.0
 11
-672.3879224539354
 21
522.392070356063
 31
0.0
  0
LINE
  5
4FD
330
1F
100
AcDbEntity
  8
C-A
  6
Continuous
 62
     3
370
     9
100
AcDbLine
 10
-944.3849102864948
 20
522.392070356063
 30
0.0
 11
-938.3852369070604
 21
522.392070356063
 31
0.0
  0
LINE
  5
4FE
330
1F
100
AcDbEntity
  8
C-A
  6
Continuous
 62
     3
370
     9
100
AcDbLine
 10
-930.3858786010005
 20
522.392070356063
 30
0.0
 11
-924.3863289414776
 21
522.392070356063
 31
0.0
  0
LINE
  5
4FF
330
1F
100
AcDbEntity
  8
C-A
  6
Continuous
 62
     3
370
     9
100
AcDbLine
 10
-692.387988437888
 20
522.392070356063
 30
0.0
 11
-686.3873252991635
 21
522.392070356063
 31
0.0
  0
LINE
  5
500
330
1F
100
AcDbEntity
  8
C-A
  6
Continuous
 62
     3
370
     9
100
AcDbLine
 10
-706.3878861627614
 20
522.392070356063
 30
0.0
 11
-700.3878416235932
 21
522.392070356063
 31
0.0
  0
LINE
  5
501
330
1F
100
AcDbEntity
  8
C-A
  6
Continuous
 62
     3
370
     9
100
AcDbLine
 10
-720.3879076075464
 20
522.392070356063
 30
0.0
 11
-714.3873681887328
 21
522.392070356063
 31
0.0
  0
LINE
  5
502
330
1F
100
AcDbEntity
  8
C-A
  6
Continuous
 62
     3
370
     9
100
AcDbLine
 10
-734.3869392930401
 20
522.392070356063
 30
0.0
 11
-728.3872659136063
 21
522.392070356063
 31
0.0
  0
LINE
  5
503
330
1F
100
AcDbEntity
  8
C-A
  6
Continuous
 62
     3
370
     9
100
AcDbLine
 10
-748.3873318975589
 20
522.392070356063
 30
0.0
 11
-742.3871636384791
 21
522.392070356063
 31
0.0
  0
LINE
  5
504
330
1F
100
AcDbEntity
  8
C-A
  6
Continuous
 62
     3
370
     9
100
AcDbLine
 10
-762.3868584626979
 20
522.392070356063
 30
0.0
 11
-756.3861953239734
 21
522.392070356063
 31
0.0
  0
LINE
  5
505
330
1F
100
AcDbEntity
  8
C-A
  6
Continuous
 62
     3
370
     9
100
AcDbLine
 10
-776.386261307926
 20
522.392070356063
 30
0.0
 11
-770.3867116484037
 21
522.392070356063
 31
0.0
  0
LINE
  5
506
330
1F
100
AcDbEntity
  8
C-A
  6
Continuous
 62
     3
370
     9
100
AcDbLine
 10
-790.3867776323563
 20
522.392070356063
 30
0.0
 11
-784.3861144936312
 21
522.392070356063
 31
0.0
  0
LINE
  5
507
330
1F
100
AcDbEntity
  8
C-A
  6
Continuous
 62
     3
370
     9
100
AcDbLine
 10
-804.3861804775844
 20
522.392070356063
 30
0.0
 11
-798.3866308180615
 21
522.392070356063
 31
0.0
  0
LINE
  5
508
330
1F
100
AcDbEntity
  8
C-A
  6
Continuous
 62
     3
370
     9
100
AcDbLine
 10
-818.3866968020141
 20
522.392070356063
 30
0.0
 11
-812.3860336632896
 21
522.392070356063
 31
0.0
  0
LINE
  5
509
330
1F
100
AcDbEntity
  8
C-A
  6
Continuous
 62
     3
370
     9
100
AcDbLine
 10
-832.3867182467984
 20
522.392070356063
 30
0.0
 11
-826.3865499877193
 21
522.392070356063
 31
0.0
  0
LINE
  5
50A
330
1F
100
AcDbEntity
  8
C-A
  6
Continuous
 62
     3
370
     9
100
AcDbLine
 10
-846.3861210920265
 20
522.392070356063
 30
0.0
 11
-840.3864477125927
 21
522.392070356063
 31
0.0
  0
LINE
  5
50B
330
1F
100
AcDbEntity
  8
C-A
  6
Continuous
 62
     3
370
     9
100
AcDbLine
 10
-860.3865136965453
 20
522.392070356063
 30
0.0
 11
-854.3864691573771
 21
522.392070356063
 31
0.0
  0
LINE
  5
50C
330
1F
100
AcDbEntity
  8
C-A
  6
Continuous
 62
     3
370
     9
100
AcDbLine
 10
-874.3860402616849
 20
522.392070356063
 30
0.0
 11
-868.386490602162
 21
522.392070356063
 31
0.0
  0
LINE
  5
50D
330
1F
100
AcDbEntity
  8
C-A
  6
Continuous
 62
     3
370
     9
100
AcDbLine
 10
-888.3865565861146
 20
522.392070356063
 30
0.0
 11
-882.3858934473901
 21
522.392070356063
 31
0.0
  0
LINE
  5
50E
330
1F
100
AcDbEntity
  8
C-A
  6
Continuous
 62
     3
370
     9
100
AcDbLine
 10
-902.3859594313427
 20
522.392070356063
 30
0.0
 11
-896.3862860519083
 21
522.392070356063
 31
0.0
  0
LINE
  5
50F
330
1F
100
AcDbEntity
  8
C-A
  6
Continuous
 62
     3
370
     9
100
AcDbLine
 10
-916.3864757557724
 20
522.392070356063
 30
0.0
 11
-910.3858126170479
 21
522.392070356063
 31
0.0
  0
LINE
  5
510
330
1F
100
AcDbEntity
  8
C-A
  6
Continuous
 62
     3
370
     9
100
AcDbLine
 10
-958.3766985835805
 20
522.3919466361515
 30
0.0
 11
-952.3849102864947
 21
522.3919466361515
 31
0.0
  0
LINE
  5
511
330
1F
100
AcDbEntity
  8
C-A
  6
Continuous
 62
     3
370
     9
100
AcDbLine
 10
-706.3849168848901
 20
430.0741757656517
 30
0.0
 11
-706.3849168848901
 21
922.9421874775791
 31
0.0
  0
LINE
  5
512
330
1F
100
AcDbEntity
  8
C-A
  6
Continuous
 62
     3
370
     9
100
AcDbLine
 10
-524.405794207525
 20
629.4919004473845
 30
0.0
 11
-518.3858307626349
 21
629.4919004473845
 31
0.0
  0
LINE
  5
513
330
1F
100
AcDbEntity
  8
C-A
  6
Continuous
 62
     3
370
     9
100
AcDbLine
 10
-622.3876337741422
 20
529.4920654072665
 30
0.0
 11
-616.3861045960385
 21
529.4920654072665
 31
0.0
  0
LINE
  5
514
330
1F
100
AcDbEntity
  8
C-A
  6
Continuous
 62
     3
370
     9
100
AcDbLine
 10
-622.3876337741422
 20
525.9420654072666
 30
0.0
 11
-616.3861045960385
 21
525.9420654072666
 31
0.0
  0
LINE
  5
515
330
1F
100
AcDbEntity
  8
C-A
  6
Continuous
 62
     3
370
     9
100
AcDbLine
 10
-714.3848937905062
 20
428.9423144966879
 30
0.0
 11
-714.3848937905062
 21
922.9421874775791
 31
0.0
  0
LINE
  5
516
330
1F
100
AcDbEntity
  8
C-A
  6
Continuous
 62
     3
370
     9
100
AcDbLine
 10
-700.3853672253672
 20
428.9423144966879
 30
0.0
 11
-700.3853672253672
 21
922.9421874775791
 31
0.0
  0
LINE
  5
517
330
1F
100
AcDbEntity
  8
C-A
  6
Continuous
 62
     3
370
     9
100
AcDbLine
 10
-476.3774771942224
 20
428.9423144966879
 30
0.0
 11
-476.3774771942224
 21
922.9421874775791
 31
0.0
  0
LINE
  5
518
330
1F
100
AcDbEntity
  8
C-A
  6
Continuous
 62
     3
370
     9
100
AcDbLine
 10
-482.3850686479813
 20
428.9423144966879
 30
0.0
 11
-482.3850686479813
 21
922.9421874775791
 31
0.0
  0
LINE
  5
519
330
1F
100
AcDbEntity
  8
C-A
  6
Continuous
 62
     3
370
     9
100
AcDbLine
 10
-490.384798113775
 20
428.9423144966879
 30
0.0
 11
-490.384798113775
 21
922.9421874775791
 31
0.0
  0
LINE
  5
51A
330
1F
100
AcDbEntity
  8
C-A
  6
Continuous
 62
     3
370
     9
100
AcDbLine
 10
-496.3854612524995
 20
428.9423144966879
 30
0.0
 11
-496.3854612524995
 21
922.9421874775791
 31
0.0
  0
LINE
  5
51B
330
1F
100
AcDbEntity
  8
C-A
  6
Continuous
 62
     3
370
     9
100
AcDbLine
 10
-504.3853144382047
 20
428.9423144966879
 30
0.0
 11
-504.3853144382047
 21
922.9421874775791
 31
0.0
  0
LINE
  5
51C
330
1F
100
AcDbEntity
  8
C-A
  6
Continuous
 62
     3
370
     9
100
AcDbLine
 10
-510.3859775769297
 20
428.9423144966879
 30
0.0
 11
-510.3859775769297
 21
922.9421874775791
 31
0.0
  0
LINE
  5
51D
330
1F
100
AcDbEntity
  8
C-A
  6
Continuous
 62
     3
370
     9
100
AcDbLine
 10
-532.385233607863
 20
428.9423144966879
 30
0.0
 11
-532.385233607863
 21
922.9421874775791
 31
0.0
  0
LINE
  5
51E
330
1F
100
AcDbEntity
  8
C-A
  6
Continuous
 62
     3
370
     9
100
AcDbLine
 10
-538.3858967465875
 20
428.9423144966879
 30
0.0
 11
-538.3858967465875
 21
922.9421874775791
 31
0.0
  0
LINE
  5
51F
330
1F
100
AcDbEntity
  8
C-A
  6
Continuous
 62
     3
370
     9
100
AcDbLine
 10
-546.3857499322927
 20
428.9423144966879
 30
0.0
 11
-546.3857499322927
 21
922.9421874775791
 31
0.0
  0
LINE
  5
520
330
1F
100
AcDbEntity
  8
C-A
  6
Continuous
 62
     3
370
     9
100
AcDbLine
 10
-552.3862893511063
 20
428.9423144966879
 30
0.0
 11
-552.3862893511063
 21
922.9421874775791
 31
0.0
  0
LINE
  5
521
330
1F
100
AcDbEntity
  8
C-A
  6
Continuous
 62
     3
370
     9
100
AcDbLine
 10
-560.3861425368115
 20
428.9423144966879
 30
0.0
 11
-560.3861425368115
 21
922.9421874775791
 31
0.0
  0
LINE
  5
522
330
1F
100
AcDbEntity
  8
C-A
  6
Continuous
 62
     3
370
     9
100
AcDbLine
 10
-566.3858159162453
 20
428.9423144966879
 30
0.0
 11
-566.3858159162453
 21
922.9421874775791
 31
0.0
  0
LINE
  5
523
330
1F
100
AcDbEntity
  8
C-A
  6
Continuous
 62
     3
370
     9
100
AcDbLine
 10
-574.3856691019505
 20
428.9423144966879
 30
0.0
 11
-574.3856691019505
 21
922.9421874775791
 31
0.0
  0
LINE
  5
524
330
1F
100
AcDbEntity
  8
C-A
  6
Continuous
 62
     3
370
     9
100
AcDbLine
 10
-580.3858373610302
 20
428.9423144966879
 30
0.0
 11
-580.3858373610302
 21
922.9421874775791
 31
0.0
  0
LINE
  5
525
330
1F
100
AcDbEntity
  8
C-A
  6
Continuous
 62
     3
370
     9
100
AcDbLine
 10
-588.385566826824
 20
428.9423144966879
 30
0.0
 11
-588.385566826824
 21
922.9421874775791
 31
0.0
  0
LINE
  5
526
330
1F
100
AcDbEntity
  8
C-A
  6
Continuous
 62
     3
370
     9
100
AcDbLine
 10
-594.3857350859037
 20
428.9423144966879
 30
0.0
 11
-594.3857350859037
 21
922.9421874775791
 31
0.0
  0
LINE
  5
527
330
1F
100
AcDbEntity
  8
C-A
  6
Continuous
 62
     3
370
     9
100
AcDbLine
 10
-602.3855882716089
 20
428.9423144966879
 30
0.0
 11
-602.3855882716089
 21
922.9421874775791
 31
0.0
  0
LINE
  5
528
330
1F
100
AcDbEntity
  8
C-A
  6
Continuous
 62
     3
370
     9
100
AcDbLine
 10
-608.3862514103333
 20
428.9423144966879
 30
0.0
 11
-608.3862514103333
 21
922.9421874775791
 31
0.0
  0
LINE
  5
529
330
1F
100
AcDbEntity
  8
C-A
  6
Continuous
 62
     3
370
     9
100
AcDbLine
 10
-622.3861491352068
 20
428.9423144966879
 30
0.0
 11
-622.3861491352068
 21
922.9421874775791
 31
0.0
  0
LINE
  5
52A
330
1F
100
AcDbEntity
  8
C-A
  6
Continuous
 62
     3
370
     9
100
AcDbLine
 10
-630.386002320912
 20
428.9423144966879
 30
0.0
 11
-630.386002320912
 21
922.9421874775791
 31
0.0
  0
LINE
  5
52B
330
1F
100
AcDbEntity
  8
C-A
  6
Continuous
 62
     3
370
     9
100
AcDbLine
 10
-636.3856757003458
 20
428.9423144966879
 30
0.0
 11
-636.3856757003458
 21
922.9421874775791
 31
0.0
  0
LINE
  5
52C
330
1F
100
AcDbEntity
  8
C-A
  6
Continuous
 62
     3
370
     9
100
AcDbLine
 10
-644.3854051661401
 20
428.9423144966879
 30
0.0
 11
-644.3854051661401
 21
922.9421874775791
 31
0.0
  0
LINE
  5
52D
330
1F
100
AcDbEntity
  8
C-A
  6
Continuous
 62
     3
370
     9
100
AcDbLine
 10
-650.385078545574
 20
428.9423144966879
 30
0.0
 11
-650.385078545574
 21
922.9421874775791
 31
0.0
  0
LINE
  5
52E
330
1F
100
AcDbEntity
  8
C-A
  6
Continuous
 62
     3
370
     9
100
AcDbLine
 10
-658.3849317312792
 20
428.9423144966879
 30
0.0
 11
-658.3849317312792
 21
922.9421874775791
 31
0.0
  0
LINE
  5
52F
330
1F
100
AcDbEntity
  8
C-A
  6
Continuous
 62
     3
370
     9
100
AcDbLine
 10
-664.3855948700042
 20
428.9423144966879
 30
0.0
 11
-664.3855948700042
 21
922.9421874775791
 31
0.0
  0
LINE
  5
530
330
1F
100
AcDbEntity
  8
C-A
  6
Continuous
 62
     3
370
     9
100
AcDbLine
 10
-672.3854480557094
 20
428.9423144966879
 30
0.0
 11
-672.3854480557094
 21
922.9421874775791
 31
0.0
  0
LINE
  5
531
330
1F
100
AcDbEntity
  8
C-A
  6
Continuous
 62
     3
370
     9
100
AcDbLine
 10
-678.3859874745224
 20
428.9423144966879
 30
0.0
 11
-678.3859874745224
 21
922.9421874775791
 31
0.0
  0
LINE
  5
532
330
1F
100
AcDbEntity
  8
C-A
  6
Continuous
 62
     3
370
     9
100
AcDbLine
 10
-686.3858406602276
 20
428.9423144966879
 30
0.0
 11
-686.3858406602276
 21
922.9421874775791
 31
0.0
  0
LINE
  5
533
330
1F
100
AcDbEntity
  8
C-A
  6
Continuous
 62
     3
370
     9
100
AcDbLine
 10
-692.385514039662
 20
428.9423144966879
 30
0.0
 11
-692.385514039662
 21
922.9421874775791
 31
0.0
  0
LINE
  5
534
330
1F
100
AcDbEntity
  8
C-1
  6
JWW_DASHED3
 62
     2
370
     9
100
AcDbLine
 10
-492.3754795300542
 20
900.941817967444
 30
0.0
 11
-492.3754795300542
 21
450.9416942475323
 31
0.0
  0
LINE
  5
535
330
1F
100
AcDbEntity
  8
C-A
  6
Continuous
 62
     3
370
     9
100
AcDbLine
 10
-518.3858307626349
 20
428.9423144966879
 30
0.0
 11
-518.3858307626349
 21
922.9421874775791
 31
0.0
  0
LINE
  5
536
330
1F
100
AcDbEntity
  8
C-A
  6
Continuous
 62
     3
370
     9
100
AcDbLine
 10
-524.3853804221578
 20
428.9423144966879
 30
0.0
 11
-524.3853804221578
 21
922.9421874775791
 31
0.0
  0
LINE
  5
537
330
1F
100
AcDbEntity
  8
C-A
  6
Continuous
 62
     3
370
     9
100
AcDbLine
 10
-524.3853804221578
 20
622.3919004473848
 30
0.0
 11
-518.3858307626349
 21
622.3919004473848
 31
0.0
  0
LINE
  5
538
330
1F
100
AcDbEntity
  8
C-A
  6
Continuous
 62
     3
370
     9
100
AcDbLine
 10
-622.3876337741422
 20
522.392070356063
 30
0.0
 11
-616.3861045960385
 21
522.392070356063
 31
0.0
  0
LINE
  5
539
330
1F
100
AcDbEntity
  8
C-A
  6
Continuous
 62
     3
370
     9
100
AcDbLine
 10
-616.3861045960385
 20
428.9423144966879
 30
0.0
 11
-616.3861045960385
 21
922.9421874775791
 31
0.0
  0
LINE
  5
53A
330
1F
100
AcDbEntity
  8
C-A
  6
Continuous
 62
     3
370
     9
100
AcDbLine
 10
-510.4144752213023
 20
625.9419004473848
 30
0.0
 11
-504.4103479250606
 21
625.9419004473848
 31
0.0
  0
LINE
  5
53B
330
1F
100
AcDbEntity
  8
C-A
  6
Continuous
 62
     3
370
     9
100
AcDbLine
 10
-510.4144752213023
 20
629.4919004473845
 30
0.0
 11
-504.3945117764122
 21
629.4919004473845
 31
0.0
  0
LINE
  5
53C
330
1F
100
AcDbEntity
  8
C-A
  6
Continuous
 62
     3
370
     9
100
AcDbLine
 10
-510.3940614359352
 20
622.3919004473848
 30
0.0
 11
-504.3945117764122
 21
622.3919004473848
 31
0.0
  0
LINE
  5
53D
330
1F
100
AcDbEntity
  8
C-A
  6
Continuous
 62
     3
370
     9
100
AcDbLine
 10
-496.4231562350797
 20
625.9419004473848
 30
0.0
 11
-490.419028938838
 21
625.9419004473848
 31
0.0
  0
LINE
  5
53E
330
1F
100
AcDbEntity
  8
C-A
  6
Continuous
 62
     3
370
     9
100
AcDbLine
 10
-496.4231562350797
 20
629.4919004473845
 30
0.0
 11
-490.4031927901896
 21
629.4919004473845
 31
0.0
  0
LINE
  5
53F
330
1F
100
AcDbEntity
  8
C-A
  6
Continuous
 62
     3
370
     9
100
AcDbLine
 10
-496.4027424497125
 20
622.3919004473848
 30
0.0
 11
-490.4031927901896
 21
622.3919004473848
 31
0.0
  0
LINE
  5
540
330
1F
100
AcDbEntity
  8
C-A
  6
Continuous
 62
     3
370
     9
100
AcDbLine
 10
-482.4318372488571
 20
625.9419004473848
 30
0.0
 11
-476.4277099526154
 21
625.9419004473848
 31
0.0
  0
LINE
  5
541
330
1F
100
AcDbEntity
  8
C-A
  6
Continuous
 62
     3
370
     9
100
AcDbLine
 10
-482.4318372488571
 20
629.4919004473845
 30
0.0
 11
-476.411873803967
 21
629.4919004473845
 31
0.0
  0
LINE
  5
542
330
1F
100
AcDbEntity
  8
C-A
  6
Continuous
 62
     3
370
     9
100
AcDbLine
 10
-482.4114234634899
 20
622.3919004473848
 30
0.0
 11
-476.411873803967
 21
622.3919004473848
 31
0.0
  0
LINE
  5
543
330
1F
100
AcDbEntity
  8
C-A
  6
Continuous
 62
     3
370
     9
100
AcDbLine
 10
-608.3876337741422
 20
529.4920654072665
 30
0.0
 11
-602.3861045960385
 21
529.4920654072665
 31
0.0
  0
LINE
  5
544
330
1F
100
AcDbEntity
  8
C-A
  6
Continuous
 62
     3
370
     9
100
AcDbLine
 10
-608.3876337741422
 20
525.9420654072666
 30
0.0
 11
-602.3861045960385
 21
525.9420654072666
 31
0.0
  0
LINE
  5
545
330
1F
100
AcDbEntity
  8
C-A
  6
Continuous
 62
     3
370
     9
100
AcDbLine
 10
-608.3876337741422
 20
522.392070356063
 30
0.0
 11
-602.3861045960385
 21
522.392070356063
 31
0.0
  0
LINE
  5
546
330
1F
100
AcDbEntity
  8
C-A
  6
Continuous
 62
     3
370
     9
100
AcDbLine
 10
-594.3876337741422
 20
529.4920654072665
 30
0.0
 11
-588.3861045960385
 21
529.4920654072665
 31
0.0
  0
LINE
  5
547
330
1F
100
AcDbEntity
  8
C-A
  6
Continuous
 62
     3
370
     9
100
AcDbLine
 10
-594.3876337741422
 20
525.9420654072666
 30
0.0
 11
-588.3861045960385
 21
525.9420654072666
 31
0.0
  0
LINE
  5
548
330
1F
100
AcDbEntity
  8
C-A
  6
Continuous
 62
     3
370
     9
100
AcDbLine
 10
-594.3876337741422
 20
522.392070356063
 30
0.0
 11
-588.3861045960385
 21
522.392070356063
 31
0.0
  0
LINE
  5
549
330
1F
100
AcDbEntity
  8
C-A
  6
Continuous
 62
     3
370
     9
100
AcDbLine
 10
-580.3876337741422
 20
529.4920654072665
 30
0.0
 11
-574.3861045960385
 21
529.4920654072665
 31
0.0
  0
LINE
  5
54A
330
1F
100
AcDbEntity
  8
C-A
  6
Continuous
 62
     3
370
     9
100
AcDbLine
 10
-580.3876337741422
 20
525.9420654072666
 30
0.0
 11
-574.3861045960385
 21
525.9420654072666
 31
0.0
  0
LINE
  5
54B
330
1F
100
AcDbEntity
  8
C-A
  6
Continuous
 62
     3
370
     9
100
AcDbLine
 10
-580.3876337741422
 20
522.392070356063
 30
0.0
 11
-574.3861045960385
 21
522.392070356063
 31
0.0
  0
LINE
  5
54C
330
1F
100
AcDbEntity
  8
C-A
  6
Continuous
 62
     3
370
     9
100
AcDbLine
 10
-566.3876337741422
 20
529.4920654072665
 30
0.0
 11
-560.3861045960386
 21
529.4920654072665
 31
0.0
  0
LINE
  5
54D
330
1F
100
AcDbEntity
  8
C-A
  6
Continuous
 62
     3
370
     9
100
AcDbLine
 10
-566.3876337741422
 20
525.9420654072666
 30
0.0
 11
-560.3861045960386
 21
525.9420654072666
 31
0.0
  0
LINE
  5
54E
330
1F
100
AcDbEntity
  8
C-A
  6
Continuous
 62
     3
370
     9
100
AcDbLine
 10
-566.3876337741422
 20
522.392070356063
 30
0.0
 11
-560.3861045960386
 21
522.392070356063
 31
0.0
  0
LINE
  5
54F
330
1F
100
AcDbEntity
  8
C-A
  6
Continuous
 62
     3
370
     9
100
AcDbLine
 10
-552.3876337741423
 20
529.4920654072665
 30
0.0
 11
-546.3861045960386
 21
529.4920654072665
 31
0.0
  0
LINE
  5
550
330
1F
100
AcDbEntity
  8
C-A
  6
Continuous
 62
     3
370
     9
100
AcDbLine
 10
-552.3876337741423
 20
525.9420654072666
 30
0.0
 11
-546.3861045960386
 21
525.9420654072666
 31
0.0
  0
LINE
  5
551
330
1F
100
AcDbEntity
  8
C-A
  6
Continuous
 62
     3
370
     9
100
AcDbLine
 10
-552.3876337741423
 20
522.392070356063
 30
0.0
 11
-546.3861045960386
 21
522.392070356063
 31
0.0
  0
LINE
  5
552
330
1F
100
AcDbEntity
  8
C-A
  6
Continuous
 62
     3
370
     9
100
AcDbLine
 10
-538.3876337741423
 20
529.4920654072665
 30
0.0
 11
-532.3861045960386
 21
529.4920654072665
 31
0.0
  0
LINE
  5
553
330
1F
100
AcDbEntity
  8
C-A
  6
Continuous
 62
     3
370
     9
100
AcDbLine
 10
-538.3876337741423
 20
525.9420654072666
 30
0.0
 11
-532.3861045960386
 21
525.9420654072666
 31
0.0
  0
LINE
  5
554
330
1F
100
AcDbEntity
  8
C-A
  6
Continuous
 62
     3
370
     9
100
AcDbLine
 10
-538.3876337741423
 20
522.392070356063
 30
0.0
 11
-532.3861045960386
 21
522.392070356063
 31
0.0
  0
LINE
  5
555
330
1F
100
AcDbEntity
  8
C-A
  6
Continuous
 62
     3
370
     9
100
AcDbLine
 10
-524.3876337741423
 20
529.4920654072665
 30
0.0
 11
-518.3861045960386
 21
529.4920654072665
 31
0.0
  0
LINE
  5
556
330
1F
100
AcDbEntity
  8
C-A
  6
Continuous
 62
     3
370
     9
100
AcDbLine
 10
-524.3876337741423
 20
525.9420654072666
 30
0.0
 11
-518.3861045960386
 21
525.9420654072666
 31
0.0
  0
LINE
  5
557
330
1F
100
AcDbEntity
  8
C-A
  6
Continuous
 62
     3
370
     9
100
AcDbLine
 10
-524.3876337741423
 20
522.392070356063
 30
0.0
 11
-518.3861045960386
 21
522.392070356063
 31
0.0
  0
LINE
  5
558
330
1F
100
AcDbEntity
  8
C-A
  6
Continuous
 62
     3
370
     9
100
AcDbLine
 10
-510.3876337741423
 20
529.4920654072665
 30
0.0
 11
-504.3861045960386
 21
529.4920654072665
 31
0.0
  0
LINE
  5
559
330
1F
100
AcDbEntity
  8
C-A
  6
Continuous
 62
     3
370
     9
100
AcDbLine
 10
-510.3876337741423
 20
525.9420654072666
 30
0.0
 11
-504.3861045960386
 21
525.9420654072666
 31
0.0
  0
LINE
  5
55A
330
1F
100
AcDbEntity
  8
C-A
  6
Continuous
 62
     3
370
     9
100
AcDbLine
 10
-510.3876337741423
 20
522.392070356063
 30
0.0
 11
-504.3861045960386
 21
522.392070356063
 31
0.0
  0
LINE
  5
55B
330
1F
100
AcDbEntity
  8
C-A
  6
Continuous
 62
     3
370
     9
100
AcDbLine
 10
-496.3876337741423
 20
529.4920654072665
 30
0.0
 11
-490.3861045960386
 21
529.4920654072665
 31
0.0
  0
LINE
  5
55C
330
1F
100
AcDbEntity
  8
C-A
  6
Continuous
 62
     3
370
     9
100
AcDbLine
 10
-496.3876337741423
 20
525.9420654072666
 30
0.0
 11
-490.3861045960386
 21
525.9420654072666
 31
0.0
  0
LINE
  5
55D
330
1F
100
AcDbEntity
  8
C-A
  6
Continuous
 62
     3
370
     9
100
AcDbLine
 10
-496.3876337741423
 20
522.392070356063
 30
0.0
 11
-490.3861045960386
 21
522.392070356063
 31
0.0
  0
LINE
  5
55E
330
1F
100
AcDbEntity
  8
C-A
  6
Continuous
 62
     3
370
     9
100
AcDbLine
 10
-482.3876337741423
 20
529.4920654072665
 30
0.0
 11
-476.3861045960386
 21
529.4920654072665
 31
0.0
  0
LINE
  5
55F
330
1F
100
AcDbEntity
  8
C-A
  6
Continuous
 62
     3
370
     9
100
AcDbLine
 10
-482.3876337741423
 20
525.9420654072666
 30
0.0
 11
-476.3861045960386
 21
525.9420654072666
 31
0.0
  0
LINE
  5
560
330
1F
100
AcDbEntity
  8
C-A
  6
Continuous
 62
     3
370
     9
100
AcDbLine
 10
-482.3876337741423
 20
522.392070356063
 30
0.0
 11
-476.3861045960386
 21
522.392070356063
 31
0.0
  0
LINE
  5
561
330
1F
100
AcDbEntity
  8
C-A
  6
Continuous
 62
     3
370
     9
100
AcDbLine
 10
-468.3771291288718
 20
428.9423144966879
 30
0.0
 11
-966.3765517692857
 21
428.9423144966879
 31
0.0
  0
LINE
  5
562
330
1F
100
AcDbEntity
  8
C-4
  6
Continuous
 62
     7
370
     9
100
AcDbLine
 10
-966.3765517692857
 20
1065.949523035752
 30
0.0
 11
-942.3770878889015
 21
1065.949523035752
 31
0.0
  0
LWPOLYLINE
  5
563
330
1F
100
AcDbEntity
  8
C-4
  6
Continuous
 62
     7
370
     9
100
AcDbPolyline
 90
        4
 70
     1
 43
1.0
 10
-965.8765517692858
 20
1065.949523035752
 42
0.4142135623731
 10
-966.3765517692857
 20
1066.449523035752
 42
0.4142135623731
 10
-966.8765517692857
 20
1065.949523035752
 42
0.4142135623731
 10
-966.3765517692857
 20
1065.449523035752
 42
0.4142135623731
  0
LWPOLYLINE
  5
564
330
1F
100
AcDbEntity
  8
C-4
  6
Continuous
 62
     7
370
     9
100
AcDbPolyline
 90
        4
 70
     1
 43
1.0
 10
-941.8770878889017
 20
1065.949523035752
 42
0.4142135623731
 10
-942.3770878889015
 20
1066.449523035752
 42
0.4142135623731
 10
-942.8770878889015
 20
1065.949523035752
 42
0.4142135623731
 10
-942.3770878889015
 20
1065.449523035752
 42
0.4142135623731
  0
LINE
  5
565
330
1F
100
AcDbEntity
  8
C-4
  6
Continuous
 62
     7
370
     9
100
AcDbLine
 10
-942.3770878889015
 20
1065.949523035752
 30
0.0
 11
-492.3754795300542
 21
1065.949523035752
 31
0.0
  0
LWPOLYLINE
  5
566
330
1F
100
AcDbEntity
  8
C-4
  6
Continuous
 62
     7
370
     9
100
AcDbPolyline
 90
        4
 70
     1
 43
1.0
 10
-491.8754795300542
 20
1065.949523035752
 42
0.4142135623731
 10
-492.3754795300542
 20
1066.449523035752
 42
0.4142135623731
 10
-492.8754795300541
 20
1065.949523035752
 42
0.4142135623731
 10
-492.3754795300542
 20
1065.449523035752
 42
0.4142135623731
  0
TEXT
  5
567
330
1F
100
AcDbEntity
  8
C-4
  6
Continuous
 62
     2
370
   211
100
AcDbText
 10
-749.8762837094779
 20
1077.589523035753
 30
0.0
 40
30.48
  1
450
 41
1.083333333333333
  7
ＭＳ ゴシック
100
AcDbText
  0
LINE
  5
568
330
1F
100
AcDbEntity
  8
C-4
  6
Continuous
 62
     7
370
     9
100
AcDbLine
 10
-492.3754795300542
 20
1065.949523035752
 30
0.0
 11
-468.3771291288718
 21
1065.949523035752
 31
0.0
  0
LWPOLYLINE
  5
569
330
1F
100
AcDbEntity
  8
C-4
  6
Continuous
 62
     7
370
     9
100
AcDbPolyline
 90
        4
 70
     1
 43
1.0
 10
-467.8771291288718
 20
1065.949523035752
 42
0.4142135623731
 10
-468.3771291288718
 20
1066.449523035752
 42
0.4142135623731
 10
-468.8771291288718
 20
1065.949523035752
 42
0.4142135623731
 10
-468.3771291288718
 20
1065.449523035752
 42
0.4142135623731
  0
LINE
  5
56A
330
1F
100
AcDbEntity
  8
C-4
  6
Continuous
 62
     7
370
     9
100
AcDbLine
 10
-942.3770878889015
 20
1068.949523035752
 30
0.0
 11
-942.3770878889015
 21
945.9421478872075
 31
0.0
  0
LINE
  5
56B
330
1F
100
AcDbEntity
  8
C-4
  6
Continuous
 62
     7
370
     9
100
AcDbLine
 10
-492.3754795300542
 20
1068.949523035752
 30
0.0
 11
-492.3754795300542
 21
945.9421478872075
 31
0.0
  0
TEXT
  5
56C
330
1F
100
AcDbEntity
  8
C-4
  6
Continuous
 62
     2
370
   211
100
AcDbText
 10
-956.1966454073018
 20
1077.589523035753
 30
0.0
 40
30.48
  1
24
 41
1.0625
  7
ＭＳ ゴシック
100
AcDbText
  0
TEXT
  5
56D
330
1F
100
AcDbEntity
  8
C-4
  6
Continuous
 62
     2
370
   211
100
AcDbText
 10
-519.9712187914741
 20
1077.589523035753
 30
0.0
 40
30.48
  1
24
 41
1.0625
  7
ＭＳ ゴシック
100
AcDbText
  0
LINE
  5
56E
330
1F
100
AcDbEntity
  8
C-4
  6
Continuous
 62
     7
370
     9
100
AcDbLine
 10
-1107.414809947531
 20
925.9421478872075
 30
0.0
 11
-1107.414809947531
 21
900.941817967444
 31
0.0
  0
LWPOLYLINE
  5
56F
330
1F
100
AcDbEntity
  8
C-4
  6
Continuous
 62
     7
370
     9
100
AcDbPolyline
 90
        4
 70
     1
 43
1.0
 10
-1106.914809947531
 20
925.9421478872075
 42
0.4142135623731
 10
-1107.414809947531
 20
926.4421478872075
 42
0.4142135623731
 10
-1107.914809947531
 20
925.9421478872075
 42
0.4142135623731
 10
-1107.414809947531
 20
925.4421478872075
 42
0.4142135623731
  0
LWPOLYLINE
  5
570
330
1F
100
AcDbEntity
  8
C-4
  6
Continuous
 62
     7
370
     9
100
AcDbPolyline
 90
        4
 70
     1
 43
1.0
 10
-1106.914809947531
 20
900.941817967444
 42
0.4142135623731
 10
-1107.414809947531
 20
901.441817967444
 42
0.4142135623731
 10
-1107.914809947531
 20
900.941817967444
 42
0.4142135623731
 10
-1107.414809947531
 20
900.441817967444
 42
0.4142135623731
  0
LINE
  5
571
330
1F
100
AcDbEntity
  8
C-4
  6
Continuous
 62
     7
370
     9
100
AcDbLine
 10
-1107.414809947531
 20
900.941817967444
 30
0.0
 11
-1107.414809947531
 21
450.9416942475323
 31
0.0
  0
LWPOLYLINE
  5
572
330
1F
100
AcDbEntity
  8
C-4
  6
Continuous
 62
     7
370
     9
100
AcDbPolyline
 90
        4
 70
     1
 43
1.0
 10
-1106.914809947531
 20
450.9416942475323
 42
0.4142135623731
 10
-1107.414809947531
 20
451.4416942475323
 42
0.4142135623731
 10
-1107.914809947531
 20
450.9416942475323
 42
0.4142135623731
 10
-1107.414809947531
 20
450.4416942475324
 42
0.4142135623731
  0
TEXT
  5
573
330
1F
100
AcDbEntity
  8
C-4
  6
Continuous
 62
     2
370
   211
100
AcDbText
 10
-1119.054809947532
 20
643.4417561074882
 30
0.0
 40
30.48
  1
450
 50
90.0
 41
1.083333333333333
  7
ＭＳ ゴシック
100
AcDbText
  0
LINE
  5
574
330
1F
100
AcDbEntity
  8
C-4
  6
Continuous
 62
     7
370
     9
100
AcDbLine
 10
-1107.414809947531
 20
450.9416942475323
 30
0.0
 11
-1107.414809947531
 21
425.9421066472368
 31
0.0
  0
LWPOLYLINE
  5
575
330
1F
100
AcDbEntity
  8
C-4
  6
Continuous
 62
     7
370
     9
100
AcDbPolyline
 90
        4
 70
     1
 43
1.0
 10
-1106.914809947531
 20
425.9421066472368
 42
0.4142135623731
 10
-1107.414809947531
 20
426.4421066472368
 42
0.4142135623731
 10
-1107.914809947531
 20
425.9421066472368
 42
0.4142135623731
 10
-1107.414809947531
 20
425.4421066472369
 42
0.4142135623731
  0
TEXT
  5
576
330
1F
100
AcDbEntity
  8
C-4
  6
Continuous
 62
     2
370
   211
100
AcDbText
 10
-1119.054809947532
 20
874.842297950742
 30
0.0
 40
30.48
  1
25
 50
90.0
 41
1.0625
  7
ＭＳ ゴシック
100
AcDbText
  0
TEXT
  5
577
330
1F
100
AcDbEntity
  8
C-4
  6
Continuous
 62
     2
370
   211
100
AcDbText
 10
-1119.054809947532
 20
433.0866633125448
 30
0.0
 40
30.48
  1
25
 50
90.0
 41
1.0625
  7
ＭＳ ゴシック
100
AcDbText
  0
LINE
  5
578
330
1F
100
AcDbEntity
  8
C-4
  6
Continuous
 62
     7
370
     9
100
AcDbLine
 10
-1110.414809947531
 20
450.9416942475323
 30
0.0
 11
-987.3765517692859
 21
450.9416942475323
 31
0.0
  0
LINE
  5
579
330
1F
100
AcDbEntity
  8
C-4
  6
Continuous
 62
     7
370
     9
100
AcDbLine
 10
-1110.414809947531
 20
900.941817967444
 30
0.0
 11
-987.3765517692859
 21
900.941817967444
 31
0.0
  0
SOLID
  5
57A
330
1F
100
AcDbEntity
  8
C-5
  6
Continuous
 62
     4
370
     9
100
AcDbTrace
 10
-715.3773353287239
 20
968.6311933812285
 30
0.0
 11
-715.3773353287239
 21
1008.631193381229
 31
0.0
 12
-719.377335328724
 22
968.6311933812285
 32
0.0
 13
-719.377335328724
 23
1008.631193381229
 33
0.0
  0
LINE
  5
57B
330
1F
100
AcDbEntity
  8
C-5
  6
Continuous
 62
     4
370
     9
100
AcDbLine
 10
-707.7112455310119
 20
989.6121902547022
 30
0.0
 11
-658.4618528480702
 21
989.6121902547022
 31
0.0
  0
LINE
  5
57C
330
1F
100
AcDbEntity
  8
C-5
  6
Continuous
 62
     4
370
     9
100
AcDbLine
 10
-707.7112455310119
 20
989.6121902547022
 30
0.0
 11
-682.9251239966668
 21
986.349035449201
 31
0.0
  0
LINE
  5
57D
330
1F
100
AcDbEntity
  8
C-5
  6
Continuous
 62
     4
370
     9
100
AcDbLine
 10
-707.7112455310119
 20
989.6121902547022
 30
0.0
 11
-682.9251239966668
 21
992.8753450602037
 31
0.0
  0
TEXT
  5
57E
330
1F
100
AcDbEntity
  8
C-5
  6
Continuous
 62
     2
370
     9
100
AcDbText
 10
-650.7510817141197
 20
977.4070082344987
 30
0.0
 40
30.48
  1
A
 41
0.9999999999999998
  7
ＭＳ ゴシック
100
AcDbText
  0
LINE
  5
57F
330
1F
100
AcDbEntity
  8
C-5
  6
JWW_CENTER1
 62
     4
370
     9
100
AcDbLine
 10
-717.3773353287238
 20
968.6311933812285
 30
0.0
 11
-717.3773353287238
 21
782.3999812321974
 31
0.0
  0
LINE
  5
580
330
1F
100
AcDbEntity
  8
C-1
  6
Continuous
 62
     2
370
     9
100
AcDbLine
 10
-465.376358766224
 20
927.9420522104759
 30
0.0
 11
-465.376358766224
 21
423.9419548841457
 31
0.0
  0
LINE
  5
581
330
1F
100
AcDbEntity
  8
C-1
  6
Continuous
 62
     2
370
     9
100
AcDbLine
 10
-462.3773996630781
 20
930.9423722326464
 30
0.0
 11
-462.3773996630781
 21
420.9422534615317
 31
0.0
  0
LINE
  5
582
330
1F
100
AcDbEntity
  8
C-1
  6
Continuous
 62
     2
370
     9
100
AcDbLine
 10
-465.376358766224
 20
927.9420522104759
 30
0.0
 11
-969.3768272522885
 21
927.9420522104759
 31
0.0
  0
LINE
  5
583
330
1F
100
AcDbEntity
  8
C-1
  6
Continuous
 62
     2
370
     9
100
AcDbLine
 10
-462.3773996630781
 20
930.9423722326464
 30
0.0
 11
-972.37727099437
 21
930.9423722326464
 31
0.0
  0
LINE
  5
584
330
1F
100
AcDbEntity
  8
C-1
  6
Continuous
 62
     2
370
     9
100
AcDbLine
 10
-972.37727099437
 20
420.9422534615317
 30
0.0
 11
-972.37727099437
 21
930.9423722326464
 31
0.0
  0
LINE
  5
585
330
1F
100
AcDbEntity
  8
C-1
  6
Continuous
 62
     2
370
     9
100
AcDbLine
 10
-462.3773996630781
 20
420.9422534615317
 30
0.0
 11
-972.37727099437
 21
420.9422534615317
 31
0.0
  0
LINE
  5
586
330
1F
100
AcDbEntity
  8
C-1
  6
Continuous
 62
     2
370
     9
100
AcDbLine
 10
-969.3768272522885
 20
423.9419548841457
 30
0.0
 11
-969.3768272522885
 21
927.9420522104759
 31
0.0
  0
LINE
  5
587
330
1F
100
AcDbEntity
  8
C-1
  6
Continuous
 62
     2
370
     9
100
AcDbLine
 10
-465.376358766224
 20
423.9419548841457
 30
0.0
 11
-969.3768272522885
 21
423.9419548841457
 31
0.0
  0
LWPOLYLINE
  5
588
330
1F
100
AcDbEntity
  8
C-4
  6
Continuous
 62
     7
370
     9
100
AcDbPolyline
 90
        4
 70
     1
 43
1.0
 10
-971.87727099437
 20
1135.501962336918
 42
0.4142135623731
 10
-972.37727099437
 20
1136.001962336918
 42
0.4142135623731
 10
-972.87727099437
 20
1135.501962336918
 42
0.4142135623731
 10
-972.37727099437
 20
1135.001962336918
 42
0.4142135623731
  0
LWPOLYLINE
  5
589
330
1F
100
AcDbEntity
  8
C-4
  6
Continuous
 62
     7
370
     9
100
AcDbPolyline
 90
        4
 70
     1
 43
1.0
 10
-968.8768272522885
 20
1135.501962336918
 42
0.4142135623731
 10
-969.3768272522885
 20
1136.001962336918
 42
0.4142135623731
 10
-969.8768272522885
 20
1135.501962336918
 42
0.4142135623731
 10
-969.3768272522885
 20
1135.001962336918
 42
0.4142135623731
  0
LINE
  5
58A
330
1F
100
AcDbEntity
  8
C-4
  6
Continuous
 62
     7
370
     9
100
AcDbLine
 10
-972.37727099437
 20
1213.100199949073
 30
0.0
 11
-972.37727099437
 21
950.9423722326464
 31
0.0
  0
LINE
  5
58B
330
1F
100
AcDbEntity
  8
C-4
  6
Continuous
 62
     7
370
     9
100
AcDbLine
 10
-969.3768272522885
 20
1138.501962336918
 30
0.0
 11
-969.3768272522885
 21
947.9420522104759
 31
0.0
  0
LINE
  5
58C
330
1F
100
AcDbEntity
  8
C-4
  6
Continuous
 62
     7
370
     9
100
AcDbLine
 10
-969.3768272522885
 20
1135.501962336918
 30
0.0
 11
-966.3765517692857
 21
1135.501962336918
 31
0.0
  0
LWPOLYLINE
  5
58D
330
1F
100
AcDbEntity
  8
C-4
  6
Continuous
 62
     7
370
     9
100
AcDbPolyline
 90
        4
 70
     1
 43
1.0
 10
-965.8765517692858
 20
1135.501962336918
 42
0.4142135623731
 10
-966.3765517692857
 20
1136.001962336918
 42
0.4142135623731
 10
-966.8765517692857
 20
1135.501962336918
 42
0.4142135623731
 10
-966.3765517692857
 20
1135.001962336918
 42
0.4142135623731
  0
LINE
  5
58E
330
1F
100
AcDbEntity
  8
C-4
  6
Continuous
 62
     7
370
     9
100
AcDbLine
 10
-966.3765517692857
 20
1138.501962336918
 30
0.0
 11
-966.3765517692857
 21
945.9421478872075
 31
0.0
  0
LINE
  5
58F
330
1F
100
AcDbEntity
  8
C-4
  6
Continuous
 62
     7
370
     9
100
AcDbLine
 10
-966.3765517692857
 20
1135.501962336918
 30
0.0
 11
-468.3771291288718
 21
1135.501962336918
 31
0.0
  0
LWPOLYLINE
  5
590
330
1F
100
AcDbEntity
  8
C-4
  6
Continuous
 62
     7
370
     9
100
AcDbPolyline
 90
        4
 70
     1
 43
1.0
 10
-467.8771291288718
 20
1135.501962336918
 42
0.4142135623731
 10
-468.3771291288718
 20
1136.001962336918
 42
0.4142135623731
 10
-468.8771291288718
 20
1135.501962336918
 42
0.4142135623731
 10
-468.3771291288718
 20
1135.001962336918
 42
0.4142135623731
  0
LINE
  5
591
330
1F
100
AcDbEntity
  8
C-4
  6
Continuous
 62
     7
370
     9
100
AcDbLine
 10
-468.3771291288718
 20
1138.501962336918
 30
0.0
 11
-468.3771291288718
 21
945.9421478872075
 31
0.0
  0
TEXT
  5
592
330
1F
100
AcDbEntity
  8
C-4
  6
Continuous
 62
     2
370
   211
100
AcDbText
 10
-749.8768404490788
 20
1147.141962336918
 30
0.0
 40
30.48
  1
498
 41
1.083333333333333
  7
ＭＳ ゴシック
100
AcDbText
  0
LINE
  5
593
330
1F
100
AcDbEntity
  8
C-4
  6
Continuous
 62
     7
370
     9
100
AcDbLine
 10
-468.3771291288718
 20
1135.501962336918
 30
0.0
 11
-465.376358766224
 21
1135.501962336918
 31
0.0
  0
LWPOLYLINE
  5
594
330
1F
100
AcDbEntity
  8
C-4
  6
Continuous
 62
     7
370
     9
100
AcDbPolyline
 90
        4
 70
     1
 43
1.0
 10
-464.876358766224
 20
1135.501962336918
 42
0.4142135623731
 10
-465.376358766224
 20
1136.001962336918
 42
0.4142135623731
 10
-465.8763587662239
 20
1135.501962336918
 42
0.4142135623731
 10
-465.376358766224
 20
1135.001962336918
 42
0.4142135623731
  0
LINE
  5
595
330
1F
100
AcDbEntity
  8
C-4
  6
Continuous
 62
     7
370
     9
100
AcDbLine
 10
-465.376358766224
 20
1138.501962336918
 30
0.0
 11
-465.376358766224
 21
947.9420522104759
 31
0.0
  0
LWPOLYLINE
  5
596
330
1F
100
AcDbEntity
  8
C-4
  6
Continuous
 62
     7
370
     9
100
AcDbPolyline
 90
        4
 70
     1
 43
1.0
 10
-461.8773996630781
 20
1135.501962336918
 42
0.4142135623731
 10
-462.3773996630781
 20
1136.001962336918
 42
0.4142135623731
 10
-462.8773996630781
 20
1135.501962336918
 42
0.4142135623731
 10
-462.3773996630781
 20
1135.001962336918
 42
0.4142135623731
  0
LINE
  5
597
330
1F
100
AcDbEntity
  8
C-4
  6
Continuous
 62
     7
370
     9
100
AcDbLine
 10
-462.3773996630781
 20
1213.100199949073
 30
0.0
 11
-462.3773996630781
 21
950.9423722326464
 31
0.0
  0
TEXT
  5
598
330
1F
100
AcDbEntity
  8
C-4
  6
Continuous
 62
     2
370
   211
100
AcDbText
 10
-961.5080316458643
 20
1147.141962336918
 30
0.0
 40
30.48
  1
3
 41
0.9999999999999998
  7
ＭＳ ゴシック
100
AcDbText
  0
TEXT
  5
599
330
1F
100
AcDbEntity
  8
C-4
  6
Continuous
 62
     2
370
   211
100
AcDbText
 10
-1000.610348510036
 20
1147.141962336918
 30
0.0
 40
30.48
  1
3
 41
0.9999999999999998
  7
ＭＳ ゴシック
100
AcDbText
  0
LINE
  5
59A
330
1F
100
AcDbEntity
  8
C-4
  6
Continuous
 62
     7
370
     9
100
AcDbLine
 10
-972.37727099437
 20
1210.100199949073
 30
0.0
 11
-462.3773996630781
 21
1210.100199949073
 31
0.0
  0
LWPOLYLINE
  5
59B
330
1F
100
AcDbEntity
  8
C-4
  6
Continuous
 62
     7
370
     9
100
AcDbPolyline
 90
        4
 70
     1
 43
1.0
 10
-971.87727099437
 20
1210.100199949073
 42
0.4142135623731
 10
-972.37727099437
 20
1210.600199949073
 42
0.4142135623731
 10
-972.87727099437
 20
1210.100199949073
 42
0.4142135623731
 10
-972.37727099437
 20
1209.600199949073
 42
0.4142135623731
  0
LWPOLYLINE
  5
59C
330
1F
100
AcDbEntity
  8
C-4
  6
Continuous
 62
     7
370
     9
100
AcDbPolyline
 90
        4
 70
     1
 43
1.0
 10
-461.8773996630781
 20
1210.100199949073
 42
0.4142135623731
 10
-462.3773996630781
 20
1210.600199949073
 42
0.4142135623731
 10
-462.8773996630781
 20
1210.100199949073
 42
0.4142135623731
 10
-462.3773996630781
 20
1209.600199949073
 42
0.4142135623731
  0
TEXT
  5
59D
330
1F
100
AcDbEntity
  8
C-4
  6
Continuous
 62
     2
370
   211
100
AcDbText
 10
-749.877335328724
 20
1221.740199949073
 30
0.0
 40
30.48
  1
510
 41
1.083333333333333
  7
ＭＳ ゴシック
100
AcDbText
  0
TEXT
  5
59E
330
1F
100
AcDbEntity
  8
C-4
  6
Continuous
 62
     2
370
   211
100
AcDbText
 10
-453.5378915111432
 20
1147.141962336918
 30
0.0
 40
30.48
  1
3
 41
0.9999999999999998
  7
ＭＳ ゴシック
100
AcDbText
  0
TEXT
  5
59F
330
1F
100
AcDbEntity
  8
C-4
  6
Continuous
 62
     2
370
   211
100
AcDbText
 10
-496.3390761867905
 20
1147.141962336918
 30
0.0
 40
30.48
  1
3
 41
0.9999999999999998
  7
ＭＳ ゴシック
100
AcDbText
  0
LINE
  5
5A0
330
1F
100
AcDbEntity
  8
C-4
  6
Continuous
 62
     7
370
     9
100
AcDbLine
 10
-1008.566370198423
 20
1135.501962336918
 30
0.0
 11
-969.3768272522885
 21
1135.501962336918
 31
0.0
  0
LINE
  5
5A1
330
1F
100
AcDbEntity
  8
C-4
  6
Continuous
 62
     7
370
     9
100
AcDbLine
 10
-465.376358766224
 20
1135.501962336918
 30
0.0
 11
-429.7436465374244
 21
1135.501962336918
 31
0.0
  0
LINE
  5
5A2
330
1F
100
AcDbEntity
  8
C-4
  6
Continuous
 62
     7
370
     9
100
AcDbLine
 10
-1181.503577120747
 20
930.9423722326464
 30
0.0
 11
-1181.503577120747
 21
927.9420522104759
 31
0.0
  0
LWPOLYLINE
  5
5A3
330
1F
100
AcDbEntity
  8
C-4
  6
Continuous
 62
     7
370
     9
100
AcDbPolyline
 90
        4
 70
     1
 43
1.0
 10
-1181.003577120747
 20
930.9423722326464
 42
0.4142135623731
 10
-1181.503577120747
 20
931.4423722326464
 42
0.4142135623731
 10
-1182.003577120747
 20
930.9423722326464
 42
0.4142135623731
 10
-1181.503577120747
 20
930.4423722326464
 42
0.4142135623731
  0
LWPOLYLINE
  5
5A4
330
1F
100
AcDbEntity
  8
C-4
  6
Continuous
 62
     7
370
     9
100
AcDbPolyline
 90
        4
 70
     1
 43
1.0
 10
-1181.003577120747
 20
927.9420522104759
 42
0.4142135623731
 10
-1181.503577120747
 20
928.4420522104758
 42
0.4142135623731
 10
-1182.003577120747
 20
927.9420522104759
 42
0.4142135623731
 10
-1181.503577120747
 20
927.4420522104759
 42
0.4142135623731
  0
LINE
  5
5A5
330
1F
100
AcDbEntity
  8
C-4
  6
Continuous
 62
     7
370
     9
100
AcDbLine
 10
-1249.296512471945
 20
930.9423722326464
 30
0.0
 11
-992.37727099437
 21
930.9423722326464
 31
0.0
  0
LINE
  5
5A6
330
1F
100
AcDbEntity
  8
C-4
  6
Continuous
 62
     7
370
     9
100
AcDbLine
 10
-1184.503577120747
 20
927.9420522104759
 30
0.0
 11
-989.3768272522885
 21
927.9420522104759
 31
0.0
  0
LINE
  5
5A7
330
1F
100
AcDbEntity
  8
C-4
  6
Continuous
 62
     7
370
     9
100
AcDbLine
 10
-1181.503577120747
 20
927.9420522104759
 30
0.0
 11
-1181.503577120747
 21
925.9421478872075
 31
0.0
  0
LWPOLYLINE
  5
5A8
330
1F
100
AcDbEntity
  8
C-4
  6
Continuous
 62
     7
370
     9
100
AcDbPolyline
 90
        4
 70
     1
 43
1.0
 10
-1181.003577120747
 20
925.9421478872075
 42
0.4142135623731
 10
-1181.503577120747
 20
926.4421478872075
 42
0.4142135623731
 10
-1182.003577120747
 20
925.9421478872075
 42
0.4142135623731
 10
-1181.503577120747
 20
925.4421478872075
 42
0.4142135623731
  0
LINE
  5
5A9
330
1F
100
AcDbEntity
  8
C-4
  6
Continuous
 62
     7
370
     9
100
AcDbLine
 10
-1184.503577120747
 20
925.9421478872075
 30
0.0
 11
-986.3765517692857
 21
925.9421478872075
 31
0.0
  0
LINE
  5
5AA
330
1F
100
AcDbEntity
  8
C-4
  6
Continuous
 62
     7
370
     9
100
AcDbLine
 10
-1181.503577120747
 20
925.9421478872075
 30
0.0
 11
-1181.503577120747
 21
425.9421066472368
 31
0.0
  0
LWPOLYLINE
  5
5AB
330
1F
100
AcDbEntity
  8
C-4
  6
Continuous
 62
     7
370
     9
100
AcDbPolyline
 90
        4
 70
     1
 43
1.0
 10
-1181.003577120747
 20
425.9421066472368
 42
0.4142135623731
 10
-1181.503577120747
 20
426.4421066472368
 42
0.4142135623731
 10
-1182.003577120747
 20
425.9421066472368
 42
0.4142135623731
 10
-1181.503577120747
 20
425.4421066472369
 42
0.4142135623731
  0
LINE
  5
5AC
330
1F
100
AcDbEntity
  8
C-4
  6
Continuous
 62
     7
370
     9
100
AcDbLine
 10
-1184.503577120747
 20
425.9421066472368
 30
0.0
 11
-986.3765517692857
 21
425.9421066472368
 31
0.0
  0
TEXT
  5
5AD
330
1F
100
AcDbEntity
  8
C-4
  6
Continuous
 62
     2
370
   211
100
AcDbText
 10
-1193.143577120747
 20
643.4421272672222
 30
0.0
 40
30.48
  1
500
 50
90.0
 41
1.083333333333333
  7
ＭＳ ゴシック
100
AcDbText
  0
LINE
  5
5AE
330
1F
100
AcDbEntity
  8
C-4
  6
Continuous
 62
     7
370
     9
100
AcDbLine
 10
-1181.503577120747
 20
425.9421066472368
 30
0.0
 11
-1181.503577120747
 21
423.9419548841457
 31
0.0
  0
LWPOLYLINE
  5
5AF
330
1F
100
AcDbEntity
  8
C-4
  6
Continuous
 62
     7
370
     9
100
AcDbPolyline
 90
        4
 70
     1
 43
1.0
 10
-1181.003577120747
 20
423.9419548841457
 42
0.4142135623731
 10
-1181.503577120747
 20
424.4419548841456
 42
0.4142135623731
 10
-1182.003577120747
 20
423.9419548841457
 42
0.4142135623731
 10
-1181.503577120747
 20
423.4419548841457
 42
0.4142135623731
  0
LINE
  5
5B0
330
1F
100
AcDbEntity
  8
C-4
  6
Continuous
 62
     7
370
     9
100
AcDbLine
 10
-1184.503577120747
 20
423.9419548841457
 30
0.0
 11
-989.3768272522885
 21
423.9419548841457
 31
0.0
  0
LWPOLYLINE
  5
5B1
330
1F
100
AcDbEntity
  8
C-4
  6
Continuous
 62
     7
370
     9
100
AcDbPolyline
 90
        4
 70
     1
 43
1.0
 10
-1181.003577120747
 20
420.9422534615317
 42
0.4142135623731
 10
-1181.503577120747
 20
421.4422534615317
 42
0.4142135623731
 10
-1182.003577120747
 20
420.9422534615317
 42
0.4142135623731
 10
-1181.503577120747
 20
420.4422534615317
 42
0.4142135623731
  0
LINE
  5
5B2
330
1F
100
AcDbEntity
  8
C-4
  6
Continuous
 62
     7
370
     9
100
AcDbLine
 10
-1249.296512471945
 20
420.9422534615317
 30
0.0
 11
-992.37727099437
 21
420.9422534615317
 31
0.0
  0
LINE
  5
5B3
330
1F
100
AcDbEntity
  8
C-4
  6
Continuous
 62
     7
370
     9
100
AcDbLine
 10
-1246.296512471945
 20
930.9423722326464
 30
0.0
 11
-1246.296512471945
 21
420.9422534615317
 31
0.0
  0
LWPOLYLINE
  5
5B4
330
1F
100
AcDbEntity
  8
C-4
  6
Continuous
 62
     7
370
     9
100
AcDbPolyline
 90
        4
 70
     1
 43
1.0
 10
-1245.796512471945
 20
930.9423722326464
 42
0.4142135623731
 10
-1246.296512471945
 20
931.4423722326464
 42
0.4142135623731
 10
-1246.796512471945
 20
930.9423722326464
 42
0.4142135623731
 10
-1246.296512471945
 20
930.4423722326464
 42
0.4142135623731
  0
LWPOLYLINE
  5
5B5
330
1F
100
AcDbEntity
  8
C-4
  6
Continuous
 62
     7
370
     9
100
AcDbPolyline
 90
        4
 70
     1
 43
1.0
 10
-1245.796512471945
 20
420.9422534615317
 42
0.4142135623731
 10
-1246.296512471945
 20
421.4422534615317
 42
0.4142135623731
 10
-1246.796512471945
 20
420.9422534615317
 42
0.4142135623731
 10
-1246.296512471945
 20
420.4422534615317
 42
0.4142135623731
  0
TEXT
  5
5B6
330
1F
100
AcDbEntity
  8
C-4
  6
Continuous
 62
     2
370
   211
100
AcDbText
 10
-1257.936512471945
 20
643.4423128470892
 30
0.0
 40
30.48
  1
510
 50
90.0
 41
1.083333333333333
  7
ＭＳ ゴシック
100
AcDbText
  0
TEXT
  5
5B7
330
1F
100
AcDbEntity
  8
C-4
  6
Continuous
 62
     2
370
   211
100
AcDbText
 10
-1193.143577120747
 20
939.5409702949103
 30
0.0
 40
30.48
  1
3
 50
90.0
 41
0.9999999999999998
  7
ＭＳ ゴシック
100
AcDbText
  0
TEXT
  5
5B8
330
1F
100
AcDbEntity
  8
C-4
  6
Continuous
 62
     2
370
   211
100
AcDbText
 10
-1193.143577120747
 20
900.5443353682094
 30
0.0
 40
30.48
  1
2
 50
90.0
 41
0.9999999999999998
  7
ＭＳ ゴシック
100
AcDbText
  0
TEXT
  5
5B9
330
1F
100
AcDbEntity
  8
C-4
  6
Continuous
 62
     2
370
   211
100
AcDbText
 10
-1193.143577120747
 20
393.5880813210986
 30
0.0
 40
30.48
  1
3
 50
90.0
 41
0.9999999999999998
  7
ＭＳ ゴシック
100
AcDbText
  0
TEXT
  5
5BA
330
1F
100
AcDbEntity
  8
C-4
  6
Continuous
 62
     2
370
   211
100
AcDbText
 10
-1193.143577120747
 20
430.0483497485018
 30
0.0
 40
30.48
  1
2
 50
90.0
 41
0.9999999999999998
  7
ＭＳ ゴシック
100
AcDbText
  0
LINE
  5
5BB
330
1F
100
AcDbEntity
  8
C-4
  6
Continuous
 62
     7
370
     9
100
AcDbLine
 10
-1181.503577120747
 20
423.9419548841457
 30
0.0
 11
-1181.503577120747
 21
390.7301122621593
 31
0.0
  0
LINE
  5
5BC
330
1F
100
AcDbEntity
  8
C-5
  6
Continuous
 62
     7
370
     9
100
AcDbLine
 10
-429.8770559021493
 20
179.0390114196061
 30
0.0
 11
-1004.877483148243
 21
179.0390114196061
 31
0.0
  0
TEXT
  5
5BD
330
1F
100
AcDbEntity
  8
C-5
  6
Continuous
 62
     2
370
     9
100
AcDbText
 10
-984.8774011322519
 20
197.1786814482926
 30
0.0
 40
30.48
  1
平面詳細図　Ｓ＝１：１０
 41
1.114583333333333
  7
ＭＳ ゴシック
100
AcDbText
  0
LINE
  5
5BE
330
1F
100
AcDbEntity
  8
C-9
  6
Continuous
 62
     3
370
     9
100
AcDbLine
 10
-863.6273745066966
 20
935.9423665687933
 30
0.0
 11
-864.8773745066966
 21
935.9423665687933
 31
0.0
  0
LINE
  5
5BF
330
1F
100
AcDbEntity
  8
C-9
  6
Continuous
 62
     3
370
     9
100
AcDbLine
 10
-863.6273745066966
 20
935.9423665687933
 30
0.0
 11
-863.6273745066966
 21
964.9423508331671
 31
0.0
  0
LINE
  5
5C0
330
1F
100
AcDbEntity
  8
C-9
  6
Continuous
 62
     3
370
     9
100
AcDbLine
 10
-864.8820131785702
 20
931.9423532173511
 30
0.0
 11
-864.3688295848198
 21
931.9423532173511
 31
0.0
  0
LINE
  5
5C1
330
1F
100
AcDbEntity
  8
C-9
  6
Continuous
 62
     3
370
     9
100
AcDbLine
 10
-880.3772524363841
 20
931.9423532173511
 30
0.0
 11
-879.8773134715394
 21
931.9423532173511
 31
0.0
  0
LINE
  5
5C2
330
1F
100
AcDbEntity
  8
C-9
  6
Continuous
 62
     3
370
     9
100
AcDbLine
 10
-881.1274355418515
 20
935.9423665687933
 30
0.0
 11
-879.8774355418515
 21
935.9423665687933
 31
0.0
  0
LINE
  5
5C3
330
1F
100
AcDbEntity
  8
C-9
  6
Continuous
 62
     3
370
     9
100
AcDbLine
 10
-881.1274355418515
 20
935.9423665687933
 30
0.0
 11
-881.1274355418515
 21
964.9423508331671
 31
0.0
  0
LINE
  5
5C4
330
1F
100
AcDbEntity
  8
C-9
  6
Continuous
 62
     3
370
     9
100
AcDbLine
 10
-863.6273745066966
 20
964.9423508331671
 30
0.0
 11
-881.1274355418515
 21
964.9423508331671
 31
0.0
  0
LINE
  5
5C5
330
1F
100
AcDbEntity
  8
C-9
  6
JWW_DASHED2
 62
     3
370
     9
100
AcDbLine
 10
-865.6273745066948
 20
935.7964510605217
 30
0.0
 11
-865.6273745066948
 21
964.9423508331671
 31
0.0
  0
LINE
  5
5C6
330
1F
100
AcDbEntity
  8
C-9
  6
JWW_DASHED2
 62
     3
370
     9
100
AcDbLine
 10
-879.1273745066961
 20
935.7964510605217
 30
0.0
 11
-879.1273745066961
 21
964.9423508331671
 31
0.0
  0
LINE
  5
5C7
330
1F
100
AcDbEntity
  8
C-9
  6
JWW_CENTER2
 62
     7
370
     9
100
AcDbLine
 10
-878.1533754832582
 20
954.9423050567981
 30
0.0
 11
-866.6013124949778
 21
954.9423050567981
 31
0.0
  0
LINE
  5
5C8
330
1F
100
AcDbEntity
  8
C-9
  6
JWW_CENTER2
 62
     7
370
     9
100
AcDbLine
 10
-872.3773134715394
 20
922.4741720840808
 30
0.0
 11
-872.3773134715394
 21
969.874571292151
 31
0.0
  0
ARC
  5
5C9
330
1F
100
AcDbEntity
  8
C-9
  6
Continuous
 62
     3
370
     9
100
AcDbCircle
 10
-864.3773134715399
 20
929.9423713371635
 30
0.0
 40
1.999999642372131
100
AcDbArc
 50
29.99926757812499
 51
89.75836181640622
  0
ARC
  5
5CA
330
1F
100
AcDbEntity
  8
C-9
  6
Continuous
 62
     3
370
     9
100
AcDbCircle
 10
-864.8773745066966
 20
933.9423474953065
 30
0.0
 40
1.999999642372131
100
AcDbArc
 50
90.0
 51
269.86669921875
  0
ARC
  5
5CB
330
1F
100
AcDbEntity
  8
C-9
  6
Continuous
 62
     3
370
     9
100
AcDbCircle
 10
-880.3772524363841
 20
929.9423713371635
 30
0.0
 40
1.999999642372131
100
AcDbArc
 50
90.27595520019531
 51
150.0004730224609
  0
ARC
  5
5CC
330
1F
100
AcDbEntity
  8
C-9
  6
Continuous
 62
     3
370
     9
100
AcDbCircle
 10
-879.8774355418515
 20
933.9423474953065
 30
0.0
 40
1.999999642372131
100
AcDbArc
 50
270.0
 51
90.0
  0
CIRCLE
  5
5CD
330
1F
100
AcDbEntity
  8
C-9
  6
Continuous
 62
     3
370
     9
100
AcDbCircle
 10
-872.3773134715394
 20
954.9423050567981
 30
0.0
 40
4.249999523162842
  0
LINE
  5
5CE
330
1F
100
AcDbEntity
  8
C-9
  6
Continuous
 62
     3
370
     9
100
AcDbLine
 10
-863.6273745066966
 20
415.9418970255552
 30
0.0
 11
-864.8773745066966
 21
415.9418970255552
 31
0.0
  0
LINE
  5
5CF
330
1F
100
AcDbEntity
  8
C-9
  6
Continuous
 62
     3
370
     9
100
AcDbLine
 10
-863.6273745066966
 20
415.9418970255552
 30
0.0
 11
-863.6273745066966
 21
386.941912284347
 31
0.0
  0
LINE
  5
5D0
330
1F
100
AcDbEntity
  8
C-9
  6
Continuous
 62
     3
370
     9
100
AcDbLine
 10
-864.8820131785702
 20
419.9419122843443
 30
0.0
 11
-864.3688295848198
 21
419.9419122843443
 31
0.0
  0
LINE
  5
5D1
330
1F
100
AcDbEntity
  8
C-9
  6
Continuous
 62
     3
370
     9
100
AcDbLine
 10
-880.3772524363841
 20
419.9419122843443
 30
0.0
 11
-879.8773134715394
 21
419.9419122843443
 31
0.0
  0
LINE
  5
5D2
330
1F
100
AcDbEntity
  8
C-9
  6
Continuous
 62
     3
370
     9
100
AcDbLine
 10
-881.1274355418515
 20
415.9418970255552
 30
0.0
 11
-879.8774355418515
 21
415.9418970255552
 31
0.0
  0
LINE
  5
5D3
330
1F
100
AcDbEntity
  8
C-9
  6
Continuous
 62
     3
370
     9
100
AcDbLine
 10
-881.1274355418515
 20
415.9418970255552
 30
0.0
 11
-881.1274355418515
 21
386.941912284347
 31
0.0
  0
LINE
  5
5D4
330
1F
100
AcDbEntity
  8
C-9
  6
Continuous
 62
     3
370
     9
100
AcDbLine
 10
-863.6273745066966
 20
386.941912284347
 30
0.0
 11
-881.1274355418515
 21
386.941912284347
 31
0.0
  0
LINE
  5
5D5
330
1F
100
AcDbEntity
  8
C-9
  6
JWW_DASHED2
 62
     3
370
     9
100
AcDbLine
 10
-865.6273745066948
 20
416.0878015665736
 30
0.0
 11
-865.6273745066948
 21
386.941912284347
 31
0.0
  0
LINE
  5
5D6
330
1F
100
AcDbEntity
  8
C-9
  6
JWW_DASHED2
 62
     3
370
     9
100
AcDbLine
 10
-879.1273745066961
 20
416.0878015665736
 30
0.0
 11
-879.1273745066961
 21
386.941912284347
 31
0.0
  0
LINE
  5
5D7
330
1F
100
AcDbEntity
  8
C-9
  6
JWW_CENTER2
 62
     7
370
     9
100
AcDbLine
 10
-878.1533754832582
 20
396.9419580607115
 30
0.0
 11
-866.6013124949778
 21
396.9419580607115
 31
0.0
  0
LINE
  5
5D8
330
1F
100
AcDbEntity
  8
C-9
  6
JWW_CENTER2
 62
     7
370
     9
100
AcDbLine
 10
-872.3773134715394
 20
429.4100824503636
 30
0.0
 11
-872.3773134715394
 21
382.0096918253608
 31
0.0
  0
ARC
  5
5D9
330
1F
100
AcDbEntity
  8
C-9
  6
Continuous
 62
     3
370
     9
100
AcDbCircle
 10
-864.3773134715399
 20
421.9418817667662
 30
0.0
 40
1.999999642372131
100
AcDbArc
 50
270.2416229248047
 51
330.0007171630859
  0
ARC
  5
5DA
330
1F
100
AcDbEntity
  8
C-9
  6
Continuous
 62
     3
370
     9
100
AcDbCircle
 10
-864.8773745066966
 20
417.9419122843461
 30
0.0
 40
1.999999642372131
100
AcDbArc
 50
90.13328552246094
 51
270.0
  0
ARC
  5
5DB
330
1F
100
AcDbEntity
  8
C-9
  6
Continuous
 62
     3
370
     9
100
AcDbCircle
 10
-880.3772524363841
 20
421.9418817667662
 30
0.0
 40
1.999999642372131
100
AcDbArc
 50
209.99951171875
 51
269.7240295410156
  0
ARC
  5
5DC
330
1F
100
AcDbEntity
  8
C-9
  6
Continuous
 62
     3
370
     9
100
AcDbCircle
 10
-879.8774355418515
 20
417.9419122843461
 30
0.0
 40
1.999999642372131
100
AcDbArc
 50
270.0
 51
90.0
  0
CIRCLE
  5
5DD
330
1F
100
AcDbEntity
  8
C-9
  6
Continuous
 62
     3
370
     9
100
AcDbCircle
 10
-872.3773134715394
 20
396.9419580607115
 30
0.0
 40
4.249999523162842
  0
LINE
  5
5DE
330
1F
100
AcDbEntity
  8
C-9
  6
Continuous
 62
     3
370
     9
100
AcDbLine
 10
-553.6264284617748
 20
935.9423665687933
 30
0.0
 11
-554.8764284617748
 21
935.9423665687933
 31
0.0
  0
LINE
  5
5DF
330
1F
100
AcDbEntity
  8
C-9
  6
Continuous
 62
     3
370
     9
100
AcDbLine
 10
-553.6264284617748
 20
935.9423665687933
 30
0.0
 11
-553.6264284617748
 21
964.9423508331671
 31
0.0
  0
LINE
  5
5E0
330
1F
100
AcDbEntity
  8
C-9
  6
Continuous
 62
     3
370
     9
100
AcDbLine
 10
-554.8810671336485
 20
931.9423532173511
 30
0.0
 11
-554.367883539898
 21
931.9423532173511
 31
0.0
  0
LINE
  5
5E1
330
1F
100
AcDbEntity
  8
C-9
  6
Continuous
 62
     3
370
     9
100
AcDbLine
 10
-570.3763063914623
 20
931.9423532173511
 30
0.0
 11
-569.8763674266177
 21
931.9423532173511
 31
0.0
  0
LINE
  5
5E2
330
1F
100
AcDbEntity
  8
C-9
  6
Continuous
 62
     3
370
     9
100
AcDbLine
 10
-571.1264894969297
 20
935.9423665687933
 30
0.0
 11
-569.8764894969297
 21
935.9423665687933
 31
0.0
  0
LINE
  5
5E3
330
1F
100
AcDbEntity
  8
C-9
  6
Continuous
 62
     3
370
     9
100
AcDbLine
 10
-571.1264894969297
 20
935.9423665687933
 30
0.0
 11
-571.1264894969297
 21
964.9423508331671
 31
0.0
  0
LINE
  5
5E4
330
1F
100
AcDbEntity
  8
C-9
  6
Continuous
 62
     3
370
     9
100
AcDbLine
 10
-553.6264284617748
 20
964.9423508331671
 30
0.0
 11
-571.1264894969297
 21
964.9423508331671
 31
0.0
  0
LINE
  5
5E5
330
1F
100
AcDbEntity
  8
C-9
  6
JWW_DASHED2
 62
     3
370
     9
100
AcDbLine
 10
-555.626428461773
 20
935.7964510605217
 30
0.0
 11
-555.626428461773
 21
964.9423508331671
 31
0.0
  0
LINE
  5
5E6
330
1F
100
AcDbEntity
  8
C-9
  6
JWW_DASHED2
 62
     3
370
     9
100
AcDbLine
 10
-569.1264284617744
 20
935.7964510605217
 30
0.0
 11
-569.1264284617744
 21
964.9423508331671
 31
0.0
  0
LINE
  5
5E7
330
1F
100
AcDbEntity
  8
C-9
  6
JWW_CENTER2
 62
     7
370
     9
100
AcDbLine
 10
-568.1524294383364
 20
954.9423050567981
 30
0.0
 11
-556.6003664500561
 21
954.9423050567981
 31
0.0
  0
LINE
  5
5E8
330
1F
100
AcDbEntity
  8
C-9
  6
JWW_CENTER2
 62
     7
370
     9
100
AcDbLine
 10
-562.3763674266177
 20
922.4741720840808
 30
0.0
 11
-562.3763674266177
 21
969.874571292151
 31
0.0
  0
ARC
  5
5E9
330
1F
100
AcDbEntity
  8
C-9
  6
Continuous
 62
     3
370
     9
100
AcDbCircle
 10
-554.3763674266181
 20
929.9423713371635
 30
0.0
 40
1.999999642372131
100
AcDbArc
 50
29.99926757812499
 51
89.75836181640622
  0
ARC
  5
5EA
330
1F
100
AcDbEntity
  8
C-9
  6
Continuous
 62
     3
370
     9
100
AcDbCircle
 10
-554.8764284617748
 20
933.9423474953065
 30
0.0
 40
1.999999642372131
100
AcDbArc
 50
90.0
 51
269.86669921875
  0
ARC
  5
5EB
330
1F
100
AcDbEntity
  8
C-9
  6
Continuous
 62
     3
370
     9
100
AcDbCircle
 10
-570.3763063914623
 20
929.9423713371635
 30
0.0
 40
1.999999642372131
100
AcDbArc
 50
90.27595520019531
 51
150.0004730224609
  0
ARC
  5
5EC
330
1F
100
AcDbEntity
  8
C-9
  6
Continuous
 62
     3
370
     9
100
AcDbCircle
 10
-569.8764894969297
 20
933.9423474953065
 30
0.0
 40
1.999999642372131
100
AcDbArc
 50
270.0
 51
90.0
  0
CIRCLE
  5
5ED
330
1F
100
AcDbEntity
  8
C-9
  6
Continuous
 62
     3
370
     9
100
AcDbCircle
 10
-562.3763674266177
 20
954.9423050567981
 30
0.0
 40
4.249999523162842
  0
LINE
  5
5EE
330
1F
100
AcDbEntity
  8
C-9
  6
Continuous
 62
     3
370
     9
100
AcDbLine
 10
-553.6264284617748
 20
415.9418970255552
 30
0.0
 11
-554.8764284617748
 21
415.9418970255552
 31
0.0
  0
LINE
  5
5EF
330
1F
100
AcDbEntity
  8
C-9
  6
Continuous
 62
     3
370
     9
100
AcDbLine
 10
-553.6264284617748
 20
415.9418970255552
 30
0.0
 11
-553.6264284617748
 21
386.941912284347
 31
0.0
  0
LINE
  5
5F0
330
1F
100
AcDbEntity
  8
C-9
  6
Continuous
 62
     3
370
     9
100
AcDbLine
 10
-554.8810671336485
 20
419.9419122843443
 30
0.0
 11
-554.367883539898
 21
419.9419122843443
 31
0.0
  0
LINE
  5
5F1
330
1F
100
AcDbEntity
  8
C-9
  6
Continuous
 62
     3
370
     9
100
AcDbLine
 10
-570.3763063914623
 20
419.9419122843443
 30
0.0
 11
-569.8763674266177
 21
419.9419122843443
 31
0.0
  0
LINE
  5
5F2
330
1F
100
AcDbEntity
  8
C-9
  6
Continuous
 62
     3
370
     9
100
AcDbLine
 10
-571.1264894969297
 20
415.9418970255552
 30
0.0
 11
-569.8764894969297
 21
415.9418970255552
 31
0.0
  0
LINE
  5
5F3
330
1F
100
AcDbEntity
  8
C-9
  6
Continuous
 62
     3
370
     9
100
AcDbLine
 10
-571.1264894969297
 20
415.9418970255552
 30
0.0
 11
-571.1264894969297
 21
386.941912284347
 31
0.0
  0
LINE
  5
5F4
330
1F
100
AcDbEntity
  8
C-9
  6
Continuous
 62
     3
370
     9
100
AcDbLine
 10
-553.6264284617748
 20
386.941912284347
 30
0.0
 11
-571.1264894969297
 21
386.941912284347
 31
0.0
  0
LINE
  5
5F5
330
1F
100
AcDbEntity
  8
C-9
  6
JWW_DASHED2
 62
     3
370
     9
100
AcDbLine
 10
-555.626428461773
 20
416.0878015665736
 30
0.0
 11
-555.626428461773
 21
386.941912284347
 31
0.0
  0
LINE
  5
5F6
330
1F
100
AcDbEntity
  8
C-9
  6
JWW_DASHED2
 62
     3
370
     9
100
AcDbLine
 10
-569.1264284617744
 20
416.0878015665736
 30
0.0
 11
-569.1264284617744
 21
386.941912284347
 31
0.0
  0
LINE
  5
5F7
330
1F
100
AcDbEntity
  8
C-9
  6
JWW_CENTER2
 62
     7
370
     9
100
AcDbLine
 10
-568.1524294383364
 20
396.9419580607115
 30
0.0
 11
-556.6003664500561
 21
396.9419580607115
 31
0.0
  0
LINE
  5
5F8
330
1F
100
AcDbEntity
  8
C-9
  6
JWW_CENTER2
 62
     7
370
     9
100
AcDbLine
 10
-562.3763674266177
 20
429.4100824503636
 30
0.0
 11
-562.3763674266177
 21
382.0096918253608
 31
0.0
  0
ARC
  5
5F9
330
1F
100
AcDbEntity
  8
C-9
  6
Continuous
 62
     3
370
     9
100
AcDbCircle
 10
-554.3763674266181
 20
421.9418817667662
 30
0.0
 40
1.999999642372131
100
AcDbArc
 50
270.2416229248047
 51
330.0007171630859
  0
ARC
  5
5FA
330
1F
100
AcDbEntity
  8
C-9
  6
Continuous
 62
     3
370
     9
100
AcDbCircle
 10
-554.8764284617748
 20
417.9419122843461
 30
0.0
 40
1.999999642372131
100
AcDbArc
 50
90.13328552246094
 51
270.0
  0
ARC
  5
5FB
330
1F
100
AcDbEntity
  8
C-9
  6
Continuous
 62
     3
370
     9
100
AcDbCircle
 10
-570.3763063914623
 20
421.9418817667662
 30
0.0
 40
1.999999642372131
100
AcDbArc
 50
209.99951171875
 51
269.7240295410156
  0
ARC
  5
5FC
330
1F
100
AcDbEntity
  8
C-9
  6
Continuous
 62
     3
370
     9
100
AcDbCircle
 10
-569.8764894969297
 20
417.9419122843461
 30
0.0
 40
1.999999642372131
100
AcDbArc
 50
270.0
 51
90.0
  0
CIRCLE
  5
5FD
330
1F
100
AcDbEntity
  8
C-9
  6
Continuous
 62
     3
370
     9
100
AcDbCircle
 10
-562.3763674266177
 20
396.9419580607115
 30
0.0
 40
4.249999523162842
  0
LWPOLYLINE
  5
5FE
330
1F
100
AcDbEntity
  8
C-4
  6
Continuous
 62
     7
370
     9
100
AcDbPolyline
 90
        4
 70
     1
 43
1.0
 10
-972.8768404490789
 20
300.7006857358002
 42
0.4142135623731
 10
-973.3768404490788
 20
301.2006857358002
 42
0.4142135623731
 10
-973.8768404490788
 20
300.7006857358002
 42
0.4142135623731
 10
-973.3768404490788
 20
300.2006857358002
 42
0.4142135623731
  0
LWPOLYLINE
  5
5FF
330
1F
100
AcDbEntity
  8
C-4
  6
Continuous
 62
     7
370
     9
100
AcDbPolyline
 90
        4
 70
     1
 43
1.0
 10
-872.8773878581352
 20
300.7006857358002
 42
0.4142135623731
 10
-873.3773878581351
 20
301.2006857358002
 42
0.4142135623731
 10
-873.8773878581351
 20
300.7006857358002
 42
0.4142135623731
 10
-873.3773878581351
 20
300.2006857358002
 42
0.4142135623731
  0
TEXT
  5
600
330
1F
100
AcDbEntity
  8
C-4
  6
Continuous
 62
     2
370
   211
100
AcDbText
 10
-955.877114153607
 20
312.3406857358004
 30
0.0
 40
30.48
  1
100
 41
1.083333333333333
  7
ＭＳ ゴシック
100
AcDbText
  0
LWPOLYLINE
  5
601
330
1F
100
AcDbEntity
  8
C-4
  6
Continuous
 62
     7
370
     9
100
AcDbPolyline
 90
        4
 70
     1
 43
1.0
 10
-562.8764418132134
 20
300.7006857358002
 42
0.4142135623731
 10
-563.3764418132134
 20
301.2006857358002
 42
0.4142135623731
 10
-563.8764418132133
 20
300.7006857358002
 42
0.4142135623731
 10
-563.3764418132134
 20
300.2006857358002
 42
0.4142135623731
  0
TEXT
  5
602
330
1F
100
AcDbEntity
  8
C-4
  6
Continuous
 62
     2
370
   211
100
AcDbText
 10
-750.8769148356739
 20
312.3406857358004
 30
0.0
 40
30.48
  1
310
 41
1.083333333333333
  7
ＭＳ ゴシック
100
AcDbText
  0
LWPOLYLINE
  5
603
330
1F
100
AcDbEntity
  8
C-4
  6
Continuous
 62
     7
370
     9
100
AcDbPolyline
 90
        4
 70
     1
 43
1.0
 10
-462.8768404490789
 20
300.7006857358002
 42
0.4142135623731
 10
-463.3768404490789
 20
301.2006857358002
 42
0.4142135623731
 10
-463.8768404490788
 20
300.7006857358002
 42
0.4142135623731
 10
-463.3768404490789
 20
300.2006857358002
 42
0.4142135623731
  0
TEXT
  5
604
330
1F
100
AcDbEntity
  8
C-4
  6
Continuous
 62
     2
370
   211
100
AcDbText
 10
-545.8766411311458
 20
312.3406857358004
 30
0.0
 40
30.48
  1
100
 41
1.083333333333333
  7
ＭＳ ゴシック
100
AcDbText
  0
LINE
  5
605
330
1F
100
AcDbEntity
  8
C-4
  6
Continuous
 62
     7
370
     9
100
AcDbLine
 10
-973.3768404490788
 20
297.7006857358006
 30
0.0
 11
-973.3768404490788
 21
400.9421066472365
 31
0.0
  0
LINE
  5
606
330
1F
100
AcDbEntity
  8
C-4
  6
Continuous
 62
     7
370
     9
100
AcDbLine
 10
-873.3773878581351
 20
297.7006857358006
 30
0.0
 11
-873.3773878581351
 21
300.7006857358002
 31
0.0
  0
LINE
  5
607
330
1F
100
AcDbEntity
  8
C-4
  6
Continuous
 62
     7
370
     9
100
AcDbLine
 10
-873.3773878581351
 20
300.7006857358002
 30
0.0
 11
-873.3773878581351
 21
362.0096886365107
 31
0.0
  0
LINE
  5
608
330
1F
100
AcDbEntity
  8
C-4
  6
Continuous
 62
     7
370
     9
100
AcDbLine
 10
-563.3764418132134
 20
297.7006857358006
 30
0.0
 11
-563.3764418132134
 21
300.7006857358002
 31
0.0
  0
LINE
  5
609
330
1F
100
AcDbEntity
  8
C-4
  6
Continuous
 62
     7
370
     9
100
AcDbLine
 10
-563.3764418132134
 20
300.7006857358002
 30
0.0
 11
-563.3764418132134
 21
362.0096886365107
 31
0.0
  0
LINE
  5
60A
330
1F
100
AcDbEntity
  8
C-4
  6
Continuous
 62
     7
370
     9
100
AcDbLine
 10
-463.3768404490789
 20
297.7006857358006
 30
0.0
 11
-463.3768404490789
 21
400.9421066472365
 31
0.0
  0
LINE
  5
60B
330
1F
100
AcDbEntity
  8
C-4
  6
Continuous
 62
     7
370
     9
100
AcDbLine
 10
-973.3768404490788
 20
300.7006857358002
 30
0.0
 11
-463.3768404490789
 21
300.7006857358002
 31
0.0
  0
ENDSEC
  0
SECTION
  2
OBJECTS
  0
DICTIONARY
  5
C
330
0
100
AcDbDictionary
281
     1
  3
ACAD_GROUP
350
D
  3
ACAD_LAYOUT
350
1A
  3
ACAD_MLEADERSTYLE
350
60D
  3
ACAD_MLINESTYLE
350
17
  3
ACAD_PLOTSETTINGS
350
19
  3
ACAD_PLOTSTYLENAME
350
E
  3
ACAD_TABLESTYLE
350
60C
  3
ACAD_VISUALSTYLE
350
2A
  0
DICTIONARY
  5
D
102
{ACAD_REACTORS
330
C
102
}
330
C
100
AcDbDictionary
281
     1
  0
DICTIONARY
  5
1A
102
{ACAD_REACTORS
330
C
102
}
330
C
100
AcDbDictionary
281
     1
  3
Layout1
350
1E
  3
Layout2
350
26
  3
Model
350
22
  0
DICTIONARY
  5
60D
102
{ACAD_REACTORS
330
C
102
}
330
C
100
AcDbDictionary
281
     1
  0
DICTIONARY
  5
17
102
{ACAD_REACTORS
330
C
102
}
330
C
100
AcDbDictionary
281
     1
  3
Standard
350
18
  0
DICTIONARY
  5
19
102
{ACAD_REACTORS
330
C
102
}
330
C
100
AcDbDictionary
281
     1
  0
ACDBDICTIONARYWDFLT
  5
E
102
{ACAD_REACTORS
330
C
102
}
330
C
100
AcDbDictionary
281
     1
  3
Normal
350
F
100
AcDbDictionaryWithDefault
340
F
  0
DICTIONARY
  5
60C
102
{ACAD_REACTORS
330
C
102
}
330
C
100
AcDbDictionary
281
     1
  0
DICTIONARY
  5
2A
102
{ACAD_REACTORS
330
C
102
}
330
C
100
AcDbDictionary
281
     1
  3
2dWireframe
350
2F
  3
3D Hidden
350
31
  3
3dWireframe
350
30
  3
Basic
350
32
  3
Brighten
350
36
  3
ColorChange
350
3A
  3
Conceptual
350
34
  3
Dim
350
35
  3
Facepattern
350
39
  3
Flat
350
2B
  3
FlatWithEdges
350
2C
  3
Gouraud
350
2D
  3
GouraudWithEdges
350
2E
  3
Linepattern
350
38
  3
Realistic
350
33
  3
Thicken
350
37
  0
LAYOUT
  5
1E
102
{ACAD_REACTORS
330
1A
102
}
330
1A
100
AcDbPlotSettings
  1

  2
none_device
  4

  6

 40
0.0
 41
0.0
 42
0.0
 43
0.0
 44
0.0
 45
0.0
 46
0.0
 47
0.0
 48
0.0
 49
0.0
140
0.0
141
0.0
142
1.0
143
1.0
 70
   688
 72
     0
 73
     0
 74
     5
  7

 75
    16
 76
     0
 77
     5
 78
   300
147
1.0
148
0.0
149
0.0
100
AcDbLayout
  1
Layout1
 70
     1
 71
     1
 10
0.0
 20
0.0
 11
420.0
 21
297.0
 12
0.0
 22
0.0
 32
0.0
 14
1.000000000000000E+20
 24
1.000000000000000E+20
 34
1.000000000000000E+20
 15
-1.000000000000000E+20
 25
-1.000000000000000E+20
 35
-1.000000000000000E+20
146
0.0
 13
0.0
 23
0.0
 33
0.0
 16
1.0
 26
0.0
 36
0.0
 17
0.0
 27
1.0
 37
0.0
 76
     0
330
1B
  0
LAYOUT
  5
26
102
{ACAD_REACTORS
330
1A
102
}
330
1A
100
AcDbPlotSettings
  1

  2
none_device
  4

  6

 40
0.0
 41
0.0
 42
0.0
 43
0.0
 44
0.0
 45
0.0
 46
0.0
 47
0.0
 48
0.0
 49
0.0
140
0.0
141
0.0
142
1.0
143
1.0
 70
   688
 72
     0
 73
     0
 74
     5
  7

 75
    16
 76
     0
 77
     5
 78
   300
147
1.0
148
0.0
149
0.0
100
AcDbLayout
  1
Layout2
 70
     1
 71
     2
 10
0.0
 20
0.0
 11
0.0
 21
0.0
 12
0.0
 22
0.0
 32
0.0
 14
0.0
 24
0.0
 34
0.0
 15
0.0
 25
0.0
 35
0.0
146
0.0
 13
0.0
 23
0.0
 33
0.0
 16
1.0
 26
0.0
 36
0.0
 17
0.0
 27
1.0
 37
0.0
 76
     0
330
23
  0
LAYOUT
  5
22
102
{ACAD_REACTORS
330
1A
102
}
330
1A
100
AcDbPlotSettings
  1

  2
none_device
  4

  6

 40
0.0
 41
0.0
 42
0.0
 43
0.0
 44
0.0
 45
0.0
 46
0.0
 47
0.0
 48
0.0
 49
0.0
140
0.0
141
0.0
142
1.0
143
1.0
 70
  1712
 72
     0
 73
     0
 74
     0
  7

 75
     0
 76
     0
 77
     5
 78
   300
147
1.0
148
0.0
149
0.0
100
AcDbLayout
  1
Model
 70
     1
 71
     0
 10
-2100.0
 20
-1485.0
 11
2100.0
 21
1485.0
 12
0.0
 22
0.0
 32
0.0
 14
-2100.0
 24
-1485.0
 34
0.0
 15
2100.0
 25
1485.0
 35
0.0
146
0.0
 13
0.0
 23
0.0
 33
0.0
 16
1.0
 26
0.0
 36
0.0
 17
0.0
 27
1.0
 37
0.0
 76
     0
330
1F
331
29
  0
MLINESTYLE
  5
18
102
{ACAD_REACTORS
330
17
102
}
330
17
100
AcDbMlineStyle
  2
Standard
 70
     0
  3

 62
   256
 51
90.0
 52
90.0
 71
     2
 49
0.5
 62
   256
  6
BYLAYER
 49
-0.5
 62
   256
  6
BYLAYER
  0
ACDBPLACEHOLDER
  5
F
102
{ACAD_REACTORS
330
E
102
}
330
E
  0
VISUALSTYLE
  5
2F
102
{ACAD_REACTORS
330
2A
102
}
330
2A
100
AcDbVisualStyle
  2
2dWireframe
 70
     4
 71
     0
 72
     2
 73
     0
 90
        0
 40
-0.6
 41
-30.0
 62
     5
 63
     7
421
 16777215
 74
     1
 91
        4
 64
     7
 65
   257
 75
     1
175
     1
 42
1.0
 92
        0
 66
   257
 43
1.0
 76
     1
 77
     6
 78
     2
 67
     7
 79
     5
170
     0
171
     0
290
     0
174
     0
 93
        1
 44
0.0
173
     0
291
     0
 45
0.0
1001
ACAD
1000
AcDbSavedByObjectVersion
1070
     0
  0
VISUALSTYLE
  5
31
102
{ACAD_REACTORS
330
2A
102
}
330
2A
100
AcDbVisualStyle
  2
3D Hidden
 70
     6
 71
     1
 72
     2
 73
     2
 90
        0
 40
-0.6
 41
-30.0
 62
     5
 63
     7
421
 16777215
 74
     2
 91
        2
 64
     7
 65
   257
 75
     2
175
     1
 42
40.0
 92
        0
 66
   257
 43
1.0
 76
     1
 77
     6
 78
     2
 67
     7
 79
     3
170
     0
171
     0
290
     0
174
     0
 93
        1
 44
0.0
173
     0
291
     0
 45
0.0
1001
ACAD
1000
AcDbSavedByObjectVersion
1070
     0
  0
VISUALSTYLE
  5
30
102
{ACAD_REACTORS
330
2A
102
}
330
2A
100
AcDbVisualStyle
  2
3dWireframe
 70
     5
 71
     0
 72
     2
 73
     0
 90
        0
 40
-0.6
 41
-30.0
 62
     5
 63
     7
421
 16777215
 74
     1
 91
        4
 64
     7
 65
   257
 75
     1
175
     1
 42
1.0
 92
        0
 66
   257
 43
1.0
 76
     1
 77
     6
 78
     2
 67
     7
 79
     5
170
     0
171
     0
290
     0
174
     0
 93
        1
 44
0.0
173
     0
291
     0
 45
0.0
1001
ACAD
1000
AcDbSavedByObjectVersion
1070
     0
  0
VISUALSTYLE
  5
32
102
{ACAD_REACTORS
330
2A
102
}
330
2A
100
AcDbVisualStyle
  2
Basic
 70
     7
 71
     1
 72
     0
 73
     1
 90
        0
 40
-0.6
 41
-30.0
 62
     5
 63
     7
421
 16777215
 74
     0
 91
        4
 64
     7
 65
   257
 75
     1
175
     1
 42
1.0
 92
        8
 66
     7
 43
1.0
 76
     1
 77
     6
 78
     2
 67
     7
 79
     5
170
     0
171
     0
290
     0
174
     0
 93
        1
 44
0.0
173
     0
291
     1
 45
0.0
1001
ACAD
1000
AcDbSavedByObjectVersion
1070
     0
  0
VISUALSTYLE
  5
36
102
{ACAD_REACTORS
330
2A
102
}
330
2A
100
AcDbVisualStyle
  2
Brighten
 70
    12
 71
     2
 72
     2
 73
     0
 90
        0
 40
-0.6
 41
-30.0
 62
     5
 63
     7
421
 16777215
 74
     1
 91
        4
 64
     7
 65
   257
 75
     1
175
     1
 42
1.0
 92
        8
 66
     7
 43
1.0
 76
     1
 77
     6
 78
     2
 67
     7
 79
     5
170
     0
171
     0
290
     0
174
     0
 93
        1
 44
50.0
173
     0
291
     1
 45
0.0
1001
ACAD
1000
AcDbSavedByObjectVersion
1070
     0
  0
VISUALSTYLE
  5
3A
102
{ACAD_REACTORS
330
2A
102
}
330
2A
100
AcDbVisualStyle
  2
ColorChange
 70
    16
 71
     2
 72
     2
 73
     3
 90
        0
 40
-0.6
 41
-30.0
 62
     5
 63
     8
421
  8421504
 74
     1
 91
        4
 64
     7
 65
   257
 75
     1
175
     1
 42
1.0
 92
        8
 66
     8
424
  8421504
 43
1.0
 76
     1
 77
     6
 78
     2
 67
     7
 79
     5
170
     0
171
     0
290
     0
174
     0
 93
        1
 44
0.0
173
     0
291
     1
 45
0.0
1001
ACAD
1000
AcDbSavedByObjectVersion
1070
     0
  0
VISUALSTYLE
  5
34
102
{ACAD_REACTORS
330
2A
102
}
330
2A
100
AcDbVisualStyle
  2
Conceptual
 70
     9
 71
     3
 72
     2
 73
     0
 90
        0
 40
-0.6
 41
-30.0
 62
     5
 63
     7
421
 16777215
 74
     2
 91
        2
 64
     7
 65
   257
 75
     1
175
     1
 42
40.0
 92
        8
 66
     7
 43
1.0
 76
     1
 77
     6
 78
     2
 67
     7
 79
     3
170
     0
171
     0
290
     0
174
     0
 93
        1
 44
0.0
173
     0
291
     0
 45
0.0
1001
ACAD
1000
AcDbSavedByObjectVersion
1070
     0
  0
VISUALSTYLE
  5
35
102
{ACAD_REACTORS
330
2A
102
}
330
2A
100
AcDbVisualStyle
  2
Dim
 70
    11
 71
     2
 72
     2
 73
     0
 90
        0
 40
-0.6
 41
-30.0
 62
     5
 63
     7
421
 16777215
 74
     1
 91
        4
 64
     7
 65
   257
 75
     1
175
     1
 42
1.0
 92
        8
 66
     7
 43
1.0
 76
     1
 77
     6
 78
     2
 67
     7
 79
     5
170
     0
171
     0
290
     0
174
     0
 93
        1
 44
-50.0
173
     0
291
     1
 45
0.0
1001
ACAD
1000
AcDbSavedByObjectVersion
1070
     0
  0
VISUALSTYLE
  5
39
102
{ACAD_REACTORS
330
2A
102
}
330
2A
100
AcDbVisualStyle
  2
Facepattern
 70
    15
 71
     2
 72
     2
 73
     0
 90
        0
 40
-0.6
 41
-30.0
 62
     5
 63
     7
421
 16777215
 74
     1
 91
        4
 64
     7
 65
   257
 75
     1
175
     1
 42
1.0
 92
        8
 66
     7
 43
1.0
 76
     1
 77
     6
 78
     2
 67
     7
 79
     5
170
     0
171
     0
290
     0
174
     0
 93
        1
 44
0.0
173
     0
291
     1
 45
0.0
1001
ACAD
1000
AcDbSavedByObjectVersion
1070
     0
  0
VISUALSTYLE
  5
2B
102
{ACAD_REACTORS
330
2A
102
}
330
2A
100
AcDbVisualStyle
  2
Flat
 70
     0
 71
     2
 72
     1
 73
     1
 90
        2
 40
-0.6
 41
30.0
 62
     5
 63
     7
421
 16777215
 74
     0
 91
        4
 64
     7
 65
   257
 75
     1
175
     1
 42
1.0
 92
        8
 66
     7
 43
1.0
 76
     1
 77
     6
 78
     2
 67
     7
 79
     5
170
     0
171
     0
290
     0
174
     0
 93
       13
 44
0.0
173
     0
291
     1
 45
0.0
1001
ACAD
1000
AcDbSavedByObjectVersion
1070
     0
  0
VISUALSTYLE
  5
2C
102
{ACAD_REACTORS
330
2A
102
}
330
2A
100
AcDbVisualStyle
  2
FlatWithEdges
 70
     1
 71
     2
 72
     1
 73
     1
 90
        2
 40
-0.6
 41
30.0
 62
     5
 63
     7
421
 16777215
 74
     1
 91
        4
 64
     7
 65
   257
 75
     1
175
     1
 42
1.0
 92
        0
 66
   257
 43
1.0
 76
     1
 77
     6
 78
     2
 67
     7
 79
     5
170
     0
171
     0
290
     0
174
     0
 93
       13
 44
0.0
173
     0
291
     1
 45
0.0
1001
ACAD
1000
AcDbSavedByObjectVersion
1070
     0
  0
VISUALSTYLE
  5
2D
102
{ACAD_REACTORS
330
2A
102
}
330
2A
100
AcDbVisualStyle
  2
Gouraud
 70
     2
 71
     2
 72
     2
 73
     1
 90
        2
 40
-0.6
 41
30.0
 62
     5
 63
     7
421
 16777215
 74
     0
 91
        4
 64
     7
 65
   257
 75
     1
175
     1
 42
1.0
 92
        0
 66
     7
 43
1.0
 76
     1
 77
     6
 78
     2
 67
     7
 79
     5
170
     0
171
     0
290
     0
174
     0
 93
       13
 44
0.0
173
     0
291
     1
 45
0.0
1001
ACAD
1000
AcDbSavedByObjectVersion
1070
     0
  0
VISUALSTYLE
  5
2E
102
{ACAD_REACTORS
330
2A
102
}
330
2A
100
AcDbVisualStyle
  2
GouraudWithEdges
 70
     3
 71
     2
 72
     2
 73
     1
 90
        2
 40
-0.6
 41
30.0
 62
     5
 63
     7
421
 16777215
 74
     1
 91
        4
 64
     7
 65
   257
 75
     1
175
     1
 42
1.0
 92
        0
 66
   257
 43
1.0
 76
     1
 77
     6
 78
     2
 67
     7
 79
     5
170
     0
171
     0
290
     0
174
     0
 93
       13
 44
0.0
173
     0
291
     1
 45
0.0
1001
ACAD
1000
AcDbSavedByObjectVersion
1070
     0
  0
VISUALSTYLE
  5
38
102
{ACAD_REACTORS
330
2A
102
}
330
2A
100
AcDbVisualStyle
  2
Linepattern
 70
    14
 71
     2
 72
     2
 73
     0
 90
        0
 40
-0.6
 41
-30.0
 62
     5
 63
     7
421
 16777215
 74
     1
 91
        4
 64
     7
 65
   257
 75
     7
175
     7
 42
1.0
 92
        8
 66
     7
 43
1.0
 76
     1
 77
     6
 78
     2
 67
     7
 79
     5
170
     0
171
     0
290
     0
174
     0
 93
        1
 44
0.0
173
     0
291
     1
 45
0.0
1001
ACAD
1000
AcDbSavedByObjectVersion
1070
     0
  0
VISUALSTYLE
  5
33
102
{ACAD_REACTORS
330
2A
102
}
330
2A
100
AcDbVisualStyle
  2
Realistic
 70
     8
 71
     2
 72
     2
 73
     0
 90
        0
 40
-0.6
 41
-30.0
 62
     5
 63
     7
421
 16777215
 74
     1
 91
        0
 64
     7
 65
   257
 75
     1
175
     1
 42
1.0
 92
        8
 66
     8
424
  7895160
 43
1.0
 76
     1
 77
     6
 78
     2
 67
     7
 79
     5
170
     0
171
     0
290
     0
174
     0
 93
       13
 44
0.0
173
     0
291
     0
 45
0.0
1001
ACAD
1000
AcDbSavedByObjectVersion
1070
     0
  0
VISUALSTYLE
  5
37
102
{ACAD_REACTORS
330
2A
102
}
330
2A
100
AcDbVisualStyle
  2
Thicken
 70
    13
 71
     2
 72
     2
 73
     0
 90
        0
 40
-0.6
 41
-30.0
 62
     5
 63
     7
421
 16777215
 74
     1
 91
        4
 64
     7
 65
   257
 75
     1
175
     1
 42
1.0
 92
       12
 66
     7
 43
1.0
 76
     1
 77
     6
 78
     2
 67
     7
 79
     5
170
     0
171
     0
290
     0
174
     0
 93
        1
 44
0.0
173
     0
291
     1
 45
0.0
1001
ACAD
1000
AcDbSavedByObjectVersion
1070
     0
  0
ENDSEC
  0
EOF
