  0
SECTION
  2
HEADER
  9
$ACADVER
  1
AC1018
  9
$ACADMAINTVER
 70
     0
  9
$DWGCODEPAGE
  3
ANSI_932
  9
$INSBASE
 10
0.0
 20
0.0
 30
0.0
  9
$EXTMIN
 10
-1260.0
 20
-891.0
 30
0.0
  9
$EXTMAX
 10
1260.0
 20
891.0
 30
0.0
  9
$LIMMIN
 10
-1260.0
 20
-891.0
  9
$LIMMAX
 10
1260.0
 20
891.0
  9
$ORTHOMODE
 70
     0
  9
$REGENMODE
 70
     1
  9
$FILLMODE
 70
     1
  9
$QTEXTMODE
 70
     0
  9
$MIRRTEXT
 70
     1
  9
$LTSCALE
 40
6.0
  9
$ATTMODE
 70
     1
  9
$TEXTSIZE
 40
2.5
  9
$TRACEWID
 40
1.0
  9
$TEXTSTYLE
  7
Standard
  9
$CLAYER
  8
0
  9
$CELTYPE
  6
ByLayer
  9
$CECOLOR
 62
   256
  9
$CELTSCALE
 40
1.0
  9
$DISPSILH
 70
     0
  9
$DIMSCALE
 40
1.0
  9
$DIMASZ
 40
2.5
  9
$DIMEXO
 40
0.625
  9
$DIMDLI
 40
3.75
  9
$DIMRND
 40
0.0
  9
$DIMDLE
 40
0.0
  9
$DIMEXE
 40
1.25
  9
$DIMTP
 40
0.0
  9
$DIMTM
 40
0.0
  9
$DIMTXT
 40
2.5
  9
$DIMCEN
 40
2.5
  9
$DIMTSZ
 40
0.0
  9
$DIMTOL
 70
     0
  9
$DIMLIM
 70
     0
  9
$DIMTIH
 70
     0
  9
$DIMTOH
 70
     0
  9
$DIMSE1
 70
     0
  9
$DIMSE2
 70
     0
  9
$DIMTAD
 70
     1
  9
$DIMZIN
 70
     8
  9
$DIMBLK
  1

  9
$DIMASO
 70
     1
  9
$DIMSHO
 70
     1
  9
$DIMPOST
  1

  9
$DIMAPOST
  1

  9
$DIMALT
 70
     0
  9
$DIMALTD
 70
     3
  9
$DIMALTF
 40
0.03937007874016
  9
$DIMLFAC
 40
1.0
  9
$DIMTOFL
 70
     1
  9
$DIMTVP
 40
0.0
  9
$DIMTIX
 70
     0
  9
$DIMSOXD
 70
     0
  9
$DIMSAH
 70
     0
  9
$DIMBLK1
  1

  9
$DIMBLK2
  1

  9
$DIMSTYLE
  2
ISO-25
  9
$DIMCLRD
 70
     0
  9
$DIMCLRE
 70
     0
  9
$DIMCLRT
 70
     0
  9
$DIMTFAC
 40
1.0
  9
$DIMGAP
 40
0.625
  9
$DIMJUST
 70
     0
  9
$DIMSD1
 70
     0
  9
$DIMSD2
 70
     0
  9
$DIMTOLJ
 70
     0
  9
$DIMTZIN
 70
     8
  9
$DIMALTZ
 70
     0
  9
$DIMALTTZ
 70
     0
  9
$DIMUPT
 70
     0
  9
$DIMDEC
 70
     2
  9
$DIMTDEC
 70
     2
  9
$DIMALTU
 70
     2
  9
$DIMALTTD
 70
     3
  9
$DIMTXSTY
  7
Standard
  9
$DIMAUNIT
 70
     0
  9
$DIMADEC
 70
     0
  9
$DIMALTRND
 40
0.0
  9
$DIMAZIN
 70
     0
  9
$DIMDSEP
 70
    44
  9
$DIMATFIT
 70
     3
  9
$DIMFRAC
 70
     0
  9
$DIMLDRBLK
  1

  9
$DIMLUNIT
 70
     2
  9
$DIMLWD
 70
    -2
  9
$DIMLWE
 70
    -2
  9
$DIMTMOVE
 70
     0
  9
$LUNITS
 70
     2
  9
$LUPREC
 70
     4
  9
$SKETCHINC
 40
1.0
  9
$FILLETRAD
 40
10.0
  9
$AUNITS
 70
     0
  9
$AUPREC
 70
     0
  9
$MENU
  1
.
  9
$ELEVATION
 40
0.0
  9
$PELEVATION
 40
0.0
  9
$THICKNESS
 40
0.0
  9
$LIMCHECK
 70
     0
  9
$CHAMFERA
 40
0.0
  9
$CHAMFERB
 40
0.0
  9
$CHAMFERC
 40
0.0
  9
$CHAMFERD
 40
0.0
  9
$SKPOLY
 70
     0
  9
$TDCREATE
 40
2459475.677885903
  9
$TDUCREATE
 40
2459475.302885903
  9
$TDUPDATE
 40
2459475.677885995
  9
$TDUUPDATE
 40
2459475.302885995
  9
$TDINDWG
 40
0.0000000116
  9
$TDUSRTIMER
 40
0.0000000116
  9
$USRTIMER
 70
     1
  9
$ANGBASE
 50
0.0
  9
$ANGDIR
 70
     0
  9
$PDMODE
 70
     0
  9
$PDSIZE
 40
0.0
  9
$PLINEWID
 40
0.0
  9
$SPLFRAME
 70
     0
  9
$SPLINETYPE
 70
     6
  9
$SPLINESEGS
 70
     8
  9
$HANDSEED
  5
2D8
  9
$SURFTAB1
 70
     6
  9
$SURFTAB2
 70
     6
  9
$SURFTYPE
 70
     6
  9
$SURFU
 70
     6
  9
$SURFV
 70
     6
  9
$UCSBASE
  2

  9
$UCSNAME
  2

  9
$UCSORG
 10
0.0
 20
0.0
 30
0.0
  9
$UCSXDIR
 10
1.0
 20
0.0
 30
0.0
  9
$UCSYDIR
 10
0.0
 20
1.0
 30
0.0
  9
$UCSORTHOREF
  2

  9
$UCSORTHOVIEW
 70
     0
  9
$UCSORGTOP
 10
0.0
 20
0.0
 30
0.0
  9
$UCSORGBOTTOM
 10
0.0
 20
0.0
 30
0.0
  9
$UCSORGLEFT
 10
0.0
 20
0.0
 30
0.0
  9
$UCSORGRIGHT
 10
0.0
 20
0.0
 30
0.0
  9
$UCSORGFRONT
 10
0.0
 20
0.0
 30
0.0
  9
$UCSORGBACK
 10
0.0
 20
0.0
 30
0.0
  9
$PUCSBASE
  2

  9
$PUCSNAME
  2

  9
$PUCSORG
 10
0.0
 20
0.0
 30
0.0
  9
$PUCSXDIR
 10
1.0
 20
0.0
 30
0.0
  9
$PUCSYDIR
 10
0.0
 20
1.0
 30
0.0
  9
$PUCSORTHOREF
  2

  9
$PUCSORTHOVIEW
 70
     0
  9
$PUCSORGTOP
 10
0.0
 20
0.0
 30
0.0
  9
$PUCSORGBOTTOM
 10
0.0
 20
0.0
 30
0.0
  9
$PUCSORGLEFT
 10
0.0
 20
0.0
 30
0.0
  9
$PUCSORGRIGHT
 10
0.0
 20
0.0
 30
0.0
  9
$PUCSORGFRONT
 10
0.0
 20
0.0
 30
0.0
  9
$PUCSORGBACK
 10
0.0
 20
0.0
 30
0.0
  9
$USERI1
 70
     0
  9
$USERI2
 70
     0
  9
$USERI3
 70
     0
  9
$USERI4
 70
     0
  9
$USERI5
 70
     0
  9
$USERR1
 40
0.0
  9
$USERR2
 40
0.0
  9
$USERR3
 40
0.0
  9
$USERR4
 40
0.0
  9
$USERR5
 40
0.0
  9
$WORLDVIEW
 70
     1
  9
$SHADEDGE
 70
     3
  9
$SHADEDIF
 70
    70
  9
$TILEMODE
 70
     1
  9
$MAXACTVP
 70
    64
  9
$PINSBASE
 10
0.0
 20
0.0
 30
0.0
  9
$PLIMCHECK
 70
     0
  9
$PEXTMIN
 10
1.000000000000000E+20
 20
1.000000000000000E+20
 30
1.000000000000000E+20
  9
$PEXTMAX
 10
-1.000000000000000E+20
 20
-1.000000000000000E+20
 30
-1.000000000000000E+20
  9
$PLIMMIN
 10
0.0
 20
0.0
  9
$PLIMMAX
 10
420.0
 20
297.0
  9
$UNITMODE
 70
     0
  9
$VISRETAIN
 70
     1
  9
$PLINEGEN
 70
     0
  9
$PSLTSCALE
 70
     1
  9
$TREEDEPTH
 70
  3020
  9
$CMLSTYLE
  2
Standard
  9
$CMLJUST
 70
     0
  9
$CMLSCALE
 40
20.0
  9
$PROXYGRAPHICS
 70
     1
  9
$MEASUREMENT
 70
     1
  9
$CELWEIGHT
370
    -1
  9
$ENDCAPS
280
     0
  9
$JOINSTYLE
280
     0
  9
$LWDISPLAY
290
     0
  9
$INSUNITS
 70
     4
  9
$HYPERLINKBASE
  1

  9
$STYLESHEET
  1

  9
$XEDIT
290
     1
  9
$CEPSNTYPE
380
     0
  9
$PSTYLEMODE
290
     1
  9
$FINGERPRINTGUID
  2
{67CFAD6F-06E9-4A45-8A9C-1E7FE875DAF2}
  9
$VERSIONGUID
  2
{FAEB1C32-E019-11D5-929B-00C0DF256EC4}
  9
$EXTNAMES
290
     1
  9
$PSVPSCALE
 40
0.0
  9
$OLESTARTUP
290
     0
  9
$SORTENTS
280
   127
  9
$INDEXCTL
280
     0
  9
$HIDETEXT
280
     1
  9
$XCLIPFRAME
290
     0
  9
$HALOGAP
280
     0
  9
$OBSCOLOR
 70
   257
  9
$OBSLTYPE
280
     0
  9
$INTERSECTIONDISPLAY
280
     0
  9
$INTERSECTIONCOLOR
 70
   257
  9
$DIMASSOC
280
     2
  9
$PROJECTNAME
  1

  0
ENDSEC
  0
SECTION
  2
CLASSES
  0
CLASS
  1
ACDBDICTIONARYWDFLT
  2
AcDbDictionaryWithDefault
  3
ObjectDBX Classes
 90
        0
 91
        4
280
     0
281
     0
  0
CLASS
  1
VISUALSTYLE
  2
AcDbVisualStyle
  3
ObjectDBX Classes
 90
     4095
 91
        4
280
     0
281
     0
  0
CLASS
  1
MATERIAL
  2
AcDbMaterial
  3
ObjectDBX Classes
 90
     1153
 91
        4
280
     0
281
     0
  0
CLASS
  1
SCALE
  2
AcDbScale
  3
ObjectDBX Classes
 90
     1153
 91
        4
280
     0
281
     0
  0
CLASS
  1
TABLESTYLE
  2
AcDbTableStyle
  3
ObjectDBX Classes
 90
     4095
 91
        4
280
     0
281
     0
  0
CLASS
  1
MLEADERSTYLE
  2
AcDbMLeaderStyle
  3
ACDB_MLEADERSTYLE_CLASS
 90
     4095
 91
        4
280
     0
281
     0
  0
CLASS
  1
SUN
  2
AcDbSun
  3
SCENEOE
 90
     1153
 91
        4
280
     0
281
     0
  0
CLASS
  1
DICTIONARYVAR
  2
AcDbDictionaryVar
  3
ObjectDBX Classes
 90
        0
 91
        4
280
     0
281
     0
  0
CLASS
  1
CELLSTYLEMAP
  2
AcDbCellStyleMap
  3
ObjectDBX Classes
 90
     1152
 91
        4
280
     0
281
     0
  0
ENDSEC
  0
SECTION
  2
TABLES
  0
TABLE
  2
VPORT
  5
8
102
{ACAD_XDICTIONARY
360
28F
102
}
330
0
100
AcDbSymbolTable
 70
     1
  0
VPORT
  5
29
330
8
100
AcDbSymbolTableRecord
100
AcDbViewportTableRecord
  2
*Active
 70
     0
 10
0.0
 20
0.0
 11
1.0
 21
1.0
 12
0.0
 22
0.0
 13
0.0
 23
0.0
 14
10.0
 24
10.0
 15
10.0
 25
10.0
 16
0.0
 26
0.0
 36
1.0
 17
0.0
 27
0.0
 37
0.0
 40
1960.2
 41
1.414141414141414
 42
50.0
 43
0.0
 44
0.0
 50
0.0
 51
0.0
 71
     0
 72
 10000
 73
     1
 74
     3
 75
     0
 76
     0
 77
     0
 78
     0
281
     0
 65
     1
110
0.0
120
0.0
130
0.0
111
1.0
121
0.0
131
0.0
112
0.0
122
1.0
132
0.0
 79
     0
146
0.0
  0
ENDTAB
  0
TABLE
  2
LTYPE
  5
5
330
0
100
AcDbSymbolTable
 70
     4
  0
LTYPE
  5
14
330
5
100
AcDbSymbolTableRecord
100
AcDbLinetypeTableRecord
  2
ByBlock
 70
     0
  3

 72
    65
 73
     0
 40
0.0
  0
LTYPE
  5
15
330
5
100
AcDbSymbolTableRecord
100
AcDbLinetypeTableRecord
  2
ByLayer
 70
     0
  3

 72
    65
 73
     0
 40
0.0
  0
LTYPE
  5
16
330
5
100
AcDbSymbolTableRecord
100
AcDbLinetypeTableRecord
  2
Continuous
 70
     0
  3
Solid line
 72
    65
 73
     0
 40
0.0
  0
LTYPE
  5
6F
330
5
100
AcDbSymbolTableRecord
100
AcDbLinetypeTableRecord
  2
JWW_CENTER1
 70
     0
  3
-----  --  ----------  --  -----
 72
    65
 73
     4
 40
6.773333333333333
 49
4.233333333333333
 74
     0
 49
-0.8466666666666667
 74
     0
 49
0.8466666666666667
 74
     0
 49
-0.8466666666666667
 74
     0
  0
LTYPE
  5
70
330
5
100
AcDbSymbolTableRecord
100
AcDbLinetypeTableRecord
  2
JWW_DASHED3
 70
     0
  3
---  ------  ------  ------  ---
 72
    65
 73
     2
 40
3.386666666666667
 49
2.54
 74
     0
 49
-0.8466666666666667
 74
     0
  0
LTYPE
  5
71
330
5
100
AcDbSymbolTableRecord
100
AcDbLinetypeTableRecord
  2
JWW_CENTER2
 70
     0
  3
-------------  --  -------------
 72
    65
 73
     4
 40
13.54666666666667
 49
11.00666666666667
 74
     0
 49
-0.8466666666666667
 74
     0
 49
0.8466666666666667
 74
     0
 49
-0.8466666666666667
 74
     0
  0
ENDTAB
  0
TABLE
  2
LAYER
  5
2
330
0
100
AcDbSymbolTable
 70
     8
  0
LAYER
  5
10
330
2
100
AcDbSymbolTableRecord
100
AcDbLayerTableRecord
  2
0
 70
     0
 62
     7
  6
Continuous
370
    -3
390
F
  0
LAYER
  5
72
330
2
100
AcDbSymbolTableRecord
100
AcDbLayerTableRecord
  2
A-2
 70
     0
 62
     7
  6
Continuous
370
    -3
390
F
  0
LAYER
  5
73
330
2
100
AcDbSymbolTableRecord
100
AcDbLayerTableRecord
  2
A-1
 70
     0
 62
     7
  6
Continuous
370
    -3
390
F
  0
LAYER
  5
74
330
2
100
AcDbSymbolTableRecord
100
AcDbLayerTableRecord
  2
A-9
 70
     0
 62
     7
  6
Continuous
370
    -3
390
F
  0
LAYER
  5
75
330
2
100
AcDbSymbolTableRecord
100
AcDbLayerTableRecord
  2
A-4
 70
     0
 62
     7
  6
Continuous
370
    -3
390
F
  0
LAYER
  5
76
330
2
100
AcDbSymbolTableRecord
100
AcDbLayerTableRecord
  2
F-4ﾚｲﾔ
 70
     0
 62
     7
  6
Continuous
370
    -3
390
F
  0
LAYER
  5
77
330
2
100
AcDbSymbolTableRecord
100
AcDbLayerTableRecord
  2
F-5ﾚｲﾔ
 70
     0
 62
     7
  6
Continuous
370
    -3
390
F
  0
LAYER
  5
78
330
2
100
AcDbSymbolTableRecord
100
AcDbLayerTableRecord
  2
A-5
 70
     0
 62
     7
  6
Continuous
370
    -3
390
F
  0
ENDTAB
  0
TABLE
  2
STYLE
  5
3
330
0
100
AcDbSymbolTable
 70
     2
  0
STYLE
  5
11
330
3
100
AcDbSymbolTableRecord
100
AcDbTextStyleTableRecord
  2
Standard
 70
     0
 40
0.0
 41
1.0
 50
0.0
 71
     0
 42
2.5
  3
txt
  4

  0
STYLE
  5
6E
330
3
100
AcDbSymbolTableRecord
100
AcDbTextStyleTableRecord
  2
ＭＳ ゴシック
 70
     0
 40
1.0
 41
1.0
 50
0.0
 71
     0
 42
2.5
  3

  4

1001
ACAD
1000
MS Gothic
1071
    32817
  0
ENDTAB
  0
TABLE
  2
VIEW
  5
6
330
0
100
AcDbSymbolTable
 70
     0
  0
ENDTAB
  0
TABLE
  2
UCS
  5
7
330
0
100
AcDbSymbolTable
 70
     0
  0
ENDTAB
  0
TABLE
  2
APPID
  5
9
330
0
100
AcDbSymbolTable
 70
     2
  0
APPID
  5
12
330
9
100
AcDbSymbolTableRecord
100
AcDbRegAppTableRecord
  2
ACAD
 70
     0
  0
APPID
  5
2CE
330
9
100
AcDbSymbolTableRecord
100
AcDbRegAppTableRecord
  2
ACAD_MLEADERVER
 70
     0
  0
ENDTAB
  0
TABLE
  2
DIMSTYLE
  5
A
330
0
100
AcDbSymbolTable
 70
     1
100
AcDbDimStyleTable
  0
DIMSTYLE
105
27
330
A
100
AcDbSymbolTableRecord
100
AcDbDimStyleTableRecord
  2
ISO-25
 70
     0
 41
2.5
 42
0.625
 43
3.75
 44
1.25
 73
     0
 74
     0
 77
     1
 78
     8
140
2.5
141
2.5
143
0.03937007874016
147
0.625
171
     3
172
     1
178
     0
271
     2
272
     2
274
     3
278
    44
283
     0
284
     8
340
11
  0
ENDTAB
  0
TABLE
  2
BLOCK_RECORD
  5
1
330
0
100
AcDbSymbolTable
 70
     1
  0
BLOCK_RECORD
  5
1F
330
1
100
AcDbSymbolTableRecord
100
AcDbBlockTableRecord
  2
*Model_Space
340
22
  0
BLOCK_RECORD
  5
1B
330
1
100
AcDbSymbolTableRecord
100
AcDbBlockTableRecord
  2
*Paper_Space
340
1E
  0
BLOCK_RECORD
  5
23
330
1
100
AcDbSymbolTableRecord
100
AcDbBlockTableRecord
  2
*Paper_Space0
340
26
  0
ENDTAB
  0
ENDSEC
  0
SECTION
  2
BLOCKS
  0
BLOCK
  5
20
330
1F
100
AcDbEntity
  8
0
100
AcDbBlockBegin
  2
*Model_Space
 70
     0
 10
0.0
 20
0.0
 30
0.0
  3
*Model_Space
  1

  0
ENDBLK
  5
21
330
1F
100
AcDbEntity
  8
0
100
AcDbBlockEnd
  0
BLOCK
  5
1C
330
1B
100
AcDbEntity
 67
     1
  8
0
100
AcDbBlockBegin
  2
*Paper_Space
 70
     0
 10
0.0
 20
0.0
 30
0.0
  3
*Paper_Space
  1

  0
ENDBLK
  5
1D
330
1B
100
AcDbEntity
 67
     1
  8
0
100
AcDbBlockEnd
  0
BLOCK
  5
24
330
23
100
AcDbEntity
  8
0
100
AcDbBlockBegin
  2
*Paper_Space0
 70
     0
 10
0.0
 20
0.0
 30
0.0
  3
*Paper_Space0
  1

  0
ENDBLK
  5
25
330
23
100
AcDbEntity
  8
0
100
AcDbBlockEnd
  0
ENDSEC
  0
SECTION
  2
ENTITIES
  0
LINE
  5
79
330
1F
100
AcDbEntity
  8
A-2
  6
Continuous
 62
     3
370
     9
100
AcDbLine
 10
-744.5025747591117
 20
-117.0301344762316
 30
0.0
 11
-744.5025747591117
 21
-77.03010148425525
 31
0.0
  0
LINE
  5
7A
330
1F
100
AcDbEntity
  8
A-2
  6
Continuous
 62
     3
370
     9
100
AcDbLine
 10
-469.5030531427687
 20
-77.03010148425525
 30
0.0
 11
-469.5030531427687
 21
-117.0301344762316
 31
0.0
  0
LINE
  5
7B
330
1F
100
AcDbEntity
  8
A-2
  6
Continuous
 62
     3
370
     9
100
AcDbLine
 10
-744.5025747591117
 20
433.9695553991908
 30
0.0
 11
-744.5025747591117
 21
522.9705418592836
 31
0.0
  0
LINE
  5
7C
330
1F
100
AcDbEntity
  8
A-2
  6
Continuous
 62
     3
370
     9
100
AcDbLine
 10
-744.5025747591117
 20
533.9700832708123
 30
0.0
 11
-744.5025747591117
 21
573.9701162627888
 31
0.0
  0
LINE
  5
7D
330
1F
100
AcDbEntity
  8
A-2
  6
Continuous
 62
     3
370
     9
100
AcDbLine
 10
-469.5030531427687
 20
573.9701162627888
 30
0.0
 11
-469.5030531427687
 21
533.9700832708123
 31
0.0
  0
LINE
  5
7E
330
1F
100
AcDbEntity
  8
A-2
  6
Continuous
 62
     3
370
     9
100
AcDbLine
 10
-469.5030531427687
 20
522.9705418592836
 30
0.0
 11
-469.5030531427687
 21
433.9695553991908
 31
0.0
  0
LINE
  5
7F
330
1F
100
AcDbEntity
  8
A-2
  6
Continuous
 62
     3
370
     9
100
AcDbLine
 10
-504.8026450320214
 20
573.9701162627888
 30
0.0
 11
-504.8026450320214
 21
533.9700832708123
 31
0.0
  0
LINE
  5
80
330
1F
100
AcDbEntity
  8
A-2
  6
Continuous
 62
     3
370
     9
100
AcDbLine
 10
-497.8027209135669
 20
573.9701162627888
 30
0.0
 11
-497.8027209135669
 21
533.9700832708123
 31
0.0
  0
LINE
  5
81
330
1F
100
AcDbEntity
  8
A-2
  6
Continuous
 62
     3
370
     9
100
AcDbLine
 10
-504.8026450320214
 20
522.9705418592836
 30
0.0
 11
-504.8026450320214
 21
433.9695553991908
 31
0.0
  0
LINE
  5
82
330
1F
100
AcDbEntity
  8
A-2
  6
Continuous
 62
     3
370
     9
100
AcDbLine
 10
-497.8027209135669
 20
522.9705418592836
 30
0.0
 11
-497.8027209135669
 21
433.9695553991908
 31
0.0
  0
LINE
  5
83
330
1F
100
AcDbEntity
  8
A-2
  6
Continuous
 62
     3
370
     9
100
AcDbLine
 10
-504.8026450320214
 20
-77.03010148425525
 30
0.0
 11
-504.8026450320214
 21
-117.0301344762316
 31
0.0
  0
LINE
  5
84
330
1F
100
AcDbEntity
  8
A-2
  6
Continuous
 62
     3
370
     9
100
AcDbLine
 10
-497.8027209135669
 20
-77.03010148425525
 30
0.0
 11
-497.8027209135669
 21
-117.0301344762316
 31
0.0
  0
LINE
  5
85
330
1F
100
AcDbEntity
  8
A-2
  6
Continuous
 62
     3
370
     9
100
AcDbLine
 10
-540.1023111532206
 20
573.9701162627888
 30
0.0
 11
-540.1023111532206
 21
533.9700832708123
 31
0.0
  0
LINE
  5
86
330
1F
100
AcDbEntity
  8
A-2
  6
Continuous
 62
     3
370
     9
100
AcDbLine
 10
-533.1023870347663
 20
573.9701162627888
 30
0.0
 11
-533.1023870347663
 21
533.9700832708123
 31
0.0
  0
LINE
  5
87
330
1F
100
AcDbEntity
  8
A-2
  6
Continuous
 62
     3
370
     9
100
AcDbLine
 10
-540.1023111532206
 20
522.9705418592836
 30
0.0
 11
-540.1023111532206
 21
433.9695553991908
 31
0.0
  0
LINE
  5
88
330
1F
100
AcDbEntity
  8
A-2
  6
Continuous
 62
     3
370
     9
100
AcDbLine
 10
-533.1023870347663
 20
522.9705418592836
 30
0.0
 11
-533.1023870347663
 21
433.9695553991908
 31
0.0
  0
LINE
  5
89
330
1F
100
AcDbEntity
  8
A-2
  6
Continuous
 62
     3
370
     9
100
AcDbLine
 10
-540.1023111532206
 20
-77.03010148425525
 30
0.0
 11
-540.1023111532206
 21
-117.0301344762316
 31
0.0
  0
LINE
  5
8A
330
1F
100
AcDbEntity
  8
A-2
  6
Continuous
 62
     3
370
     9
100
AcDbLine
 10
-533.1023870347663
 20
-77.03010148425525
 30
0.0
 11
-533.1023870347663
 21
-117.0301344762316
 31
0.0
  0
LINE
  5
8B
330
1F
100
AcDbEntity
  8
A-2
  6
Continuous
 62
     3
370
     9
100
AcDbLine
 10
-575.4025711299944
 20
573.9701162627888
 30
0.0
 11
-575.4025711299944
 21
533.9700832708123
 31
0.0
  0
LINE
  5
8C
330
1F
100
AcDbEntity
  8
A-2
  6
Continuous
 62
     3
370
     9
100
AcDbLine
 10
-568.4024985476465
 20
573.9701162627888
 30
0.0
 11
-568.4024985476465
 21
533.9700832708123
 31
0.0
  0
LINE
  5
8D
330
1F
100
AcDbEntity
  8
A-2
  6
Continuous
 62
     3
370
     9
100
AcDbLine
 10
-575.4025711299944
 20
522.9705418592836
 30
0.0
 11
-575.4025711299944
 21
433.9695553991908
 31
0.0
  0
LINE
  5
8E
330
1F
100
AcDbEntity
  8
A-2
  6
Continuous
 62
     3
370
     9
100
AcDbLine
 10
-568.4024985476465
 20
522.9705418592836
 30
0.0
 11
-568.4024985476465
 21
433.9695553991908
 31
0.0
  0
LINE
  5
8F
330
1F
100
AcDbEntity
  8
A-2
  6
Continuous
 62
     3
370
     9
100
AcDbLine
 10
-575.4025711299944
 20
-77.03010148425525
 30
0.0
 11
-575.4025711299944
 21
-117.0301344762316
 31
0.0
  0
LINE
  5
90
330
1F
100
AcDbEntity
  8
A-2
  6
Continuous
 62
     3
370
     9
100
AcDbLine
 10
-568.4024985476465
 20
-77.03010148425525
 30
0.0
 11
-568.4024985476465
 21
-117.0301344762316
 31
0.0
  0
LINE
  5
91
330
1F
100
AcDbEntity
  8
A-2
  6
Continuous
 62
     3
370
     9
100
AcDbLine
 10
-610.7027568748213
 20
573.9701162627888
 30
0.0
 11
-610.7027568748213
 21
533.9700832708123
 31
0.0
  0
LINE
  5
92
330
1F
100
AcDbEntity
  8
A-2
  6
Continuous
 62
     3
370
     9
100
AcDbLine
 10
-603.70275852442
 20
573.9701162627888
 30
0.0
 11
-603.70275852442
 21
533.9700832708123
 31
0.0
  0
LINE
  5
93
330
1F
100
AcDbEntity
  8
A-2
  6
Continuous
 62
     3
370
     9
100
AcDbLine
 10
-610.7027568748213
 20
522.9705418592836
 30
0.0
 11
-610.7027568748213
 21
433.9695553991908
 31
0.0
  0
LINE
  5
94
330
1F
100
AcDbEntity
  8
A-2
  6
Continuous
 62
     3
370
     9
100
AcDbLine
 10
-603.70275852442
 20
522.9705418592836
 30
0.0
 11
-603.70275852442
 21
433.9695553991908
 31
0.0
  0
LINE
  5
95
330
1F
100
AcDbEntity
  8
A-2
  6
Continuous
 62
     3
370
     9
100
AcDbLine
 10
-610.7027568748213
 20
-77.03010148425525
 30
0.0
 11
-610.7027568748213
 21
-117.0301344762316
 31
0.0
  0
LINE
  5
96
330
1F
100
AcDbEntity
  8
A-2
  6
Continuous
 62
     3
370
     9
100
AcDbLine
 10
-603.70275852442
 20
-77.03010148425525
 30
0.0
 11
-603.70275852442
 21
-117.0301344762316
 31
0.0
  0
LINE
  5
97
330
1F
100
AcDbEntity
  8
A-2
  6
Continuous
 62
     3
370
     9
100
AcDbLine
 10
-646.0023487640738
 20
573.9701162627888
 30
0.0
 11
-646.0023487640738
 21
533.9700832708123
 31
0.0
  0
LINE
  5
98
330
1F
100
AcDbEntity
  8
A-2
  6
Continuous
 62
     3
370
     9
100
AcDbLine
 10
-639.0024246456194
 20
573.9701162627888
 30
0.0
 11
-639.0024246456194
 21
533.9700832708123
 31
0.0
  0
LINE
  5
99
330
1F
100
AcDbEntity
  8
A-2
  6
Continuous
 62
     3
370
     9
100
AcDbLine
 10
-646.0023487640738
 20
522.9705418592836
 30
0.0
 11
-646.0023487640738
 21
433.9695553991908
 31
0.0
  0
LINE
  5
9A
330
1F
100
AcDbEntity
  8
A-2
  6
Continuous
 62
     3
370
     9
100
AcDbLine
 10
-639.0024246456194
 20
522.9705418592836
 30
0.0
 11
-639.0024246456194
 21
433.9695553991908
 31
0.0
  0
LINE
  5
9B
330
1F
100
AcDbEntity
  8
A-2
  6
Continuous
 62
     3
370
     9
100
AcDbLine
 10
-646.0023487640738
 20
-77.03010148425525
 30
0.0
 11
-646.0023487640738
 21
-117.0301344762316
 31
0.0
  0
LINE
  5
9C
330
1F
100
AcDbEntity
  8
A-2
  6
Continuous
 62
     3
370
     9
100
AcDbLine
 10
-639.0024246456194
 20
-77.03010148425525
 30
0.0
 11
-639.0024246456194
 21
-117.0301344762316
 31
0.0
  0
LINE
  5
9D
330
1F
100
AcDbEntity
  8
A-2
  6
Continuous
 62
     3
370
     9
100
AcDbLine
 10
-681.3024602769538
 20
573.9701162627888
 30
0.0
 11
-681.3024602769538
 21
533.9700832708123
 31
0.0
  0
LINE
  5
9E
330
1F
100
AcDbEntity
  8
A-2
  6
Continuous
 62
     3
370
     9
100
AcDbLine
 10
-674.3025361584994
 20
573.9701162627888
 30
0.0
 11
-674.3025361584994
 21
533.9700832708123
 31
0.0
  0
LINE
  5
9F
330
1F
100
AcDbEntity
  8
A-2
  6
Continuous
 62
     3
370
     9
100
AcDbLine
 10
-681.3024602769538
 20
522.9705418592836
 30
0.0
 11
-681.3024602769538
 21
433.9695553991908
 31
0.0
  0
LINE
  5
A0
330
1F
100
AcDbEntity
  8
A-2
  6
Continuous
 62
     3
370
     9
100
AcDbLine
 10
-674.3025361584994
 20
522.9705418592836
 30
0.0
 11
-674.3025361584994
 21
433.9695553991908
 31
0.0
  0
LINE
  5
A1
330
1F
100
AcDbEntity
  8
A-2
  6
Continuous
 62
     3
370
     9
100
AcDbLine
 10
-681.3024602769538
 20
-77.03010148425525
 30
0.0
 11
-681.3024602769538
 21
-117.0301344762316
 31
0.0
  0
LINE
  5
A2
330
1F
100
AcDbEntity
  8
A-2
  6
Continuous
 62
     3
370
     9
100
AcDbLine
 10
-674.3025361584994
 20
-77.03010148425525
 30
0.0
 11
-674.3025361584994
 21
-117.0301344762316
 31
0.0
  0
LINE
  5
A3
330
1F
100
AcDbEntity
  8
A-2
  6
Continuous
 62
     3
370
     9
100
AcDbLine
 10
-716.6027202537275
 20
573.9701162627888
 30
0.0
 11
-716.6027202537275
 21
533.9700832708123
 31
0.0
  0
LINE
  5
A4
330
1F
100
AcDbEntity
  8
A-2
  6
Continuous
 62
     3
370
     9
100
AcDbLine
 10
-709.6027219033263
 20
573.9701162627888
 30
0.0
 11
-709.6027219033263
 21
533.9700832708123
 31
0.0
  0
LINE
  5
A5
330
1F
100
AcDbEntity
  8
A-2
  6
Continuous
 62
     3
370
     9
100
AcDbLine
 10
-716.6027202537275
 20
522.9705418592836
 30
0.0
 11
-716.6027202537275
 21
433.9695553991908
 31
0.0
  0
LINE
  5
A6
330
1F
100
AcDbEntity
  8
A-2
  6
Continuous
 62
     3
370
     9
100
AcDbLine
 10
-709.6027219033263
 20
522.9705418592836
 30
0.0
 11
-709.6027219033263
 21
433.9695553991908
 31
0.0
  0
LINE
  5
A7
330
1F
100
AcDbEntity
  8
A-2
  6
Continuous
 62
     3
370
     9
100
AcDbLine
 10
-716.6027202537275
 20
-77.03010148425525
 30
0.0
 11
-716.6027202537275
 21
-117.0301344762316
 31
0.0
  0
LINE
  5
A8
330
1F
100
AcDbEntity
  8
A-2
  6
Continuous
 62
     3
370
     9
100
AcDbLine
 10
-709.6027219033263
 20
-77.03010148425525
 30
0.0
 11
-709.6027219033263
 21
-117.0301344762316
 31
0.0
  0
LINE
  5
A9
330
1F
100
AcDbEntity
  8
A-1
  6
Continuous
 62
     2
370
     9
100
AcDbLine
 10
-662.0031191267216
 20
-142.1307765000914
 30
0.0
 11
-662.0031191267216
 21
-136.0303951128448
 31
0.0
  0
LINE
  5
AA
330
1F
100
AcDbEntity
  8
A-1
  6
Continuous
 62
     2
370
     9
100
AcDbLine
 10
-562.0031851106742
 20
-152.1305620522451
 30
0.0
 11
-652.0031108787275
 21
-152.1305620522451
 31
0.0
  0
LINE
  5
AB
330
1F
100
AcDbEntity
  8
A-1
  6
Continuous
 62
     2
370
     9
100
AcDbLine
 10
-552.0031026307335
 20
-142.1307765000914
 30
0.0
 11
-552.0031026307335
 21
-136.0303951128448
 31
0.0
  0
LINE
  5
AC
330
1F
100
AcDbEntity
  8
A-1
  6
Continuous
 62
     2
370
     9
100
AcDbLine
 10
-561.0031323235121
 20
-142.1307765000914
 30
0.0
 11
-561.0031323235121
 21
-136.0303951128448
 31
0.0
  0
LINE
  5
AD
330
1F
100
AcDbEntity
  8
A-1
  6
Continuous
 62
     2
370
     9
100
AcDbLine
 10
-652.0031108787275
 20
-143.13068082336
 30
0.0
 11
-562.0030366467806
 21
-143.13068082336
 31
0.0
  0
LINE
  5
AE
330
1F
100
AcDbEntity
  8
A-1
  6
Continuous
 62
     2
370
     9
100
AcDbLine
 10
-653.0032378978365
 20
-142.1307765000914
 30
0.0
 11
-653.0032378978365
 21
-136.0303951128448
 31
0.0
  0
LINE
  5
AF
330
1F
100
AcDbEntity
  8
A-1
  6
JWW_CENTER1
 62
     2
370
     9
100
AcDbLine
 10
-657.503178512279
 20
-127.9233015080095
 30
0.0
 11
-657.503178512279
 21
-143.5203985440103
 31
0.0
  0
LINE
  5
B0
330
1F
100
AcDbEntity
  8
A-1
  6
JWW_CENTER1
 62
     2
370
     9
100
AcDbLine
 10
-649.3401882515104
 20
-136.0303951128448
 30
0.0
 11
-665.7472300589428
 21
-136.0303951128448
 31
0.0
  0
LINE
  5
B1
330
1F
100
AcDbEntity
  8
A-1
  6
JWW_CENTER1
 62
     2
370
     9
100
AcDbLine
 10
-556.5029690132292
 20
-127.9233015080095
 30
0.0
 11
-556.5029690132292
 21
-143.5203985440103
 31
0.0
  0
LINE
  5
B2
330
1F
100
AcDbEntity
  8
A-1
  6
JWW_CENTER1
 62
     2
370
     9
100
AcDbLine
 10
-548.3402756802477
 20
-136.0303951128448
 30
0.0
 11
-564.7471690237866
 21
-136.0303951128448
 31
0.0
  0
LINE
  5
B3
330
1F
100
AcDbEntity
  8
A-1
  6
Continuous
 62
     2
370
     9
100
AcDbLine
 10
-662.0031191267216
 20
599.0701644310742
 30
0.0
 11
-662.0031191267216
 21
592.9700799716147
 31
0.0
  0
LINE
  5
B4
330
1F
100
AcDbEntity
  8
A-1
  6
Continuous
 62
     2
370
     9
100
AcDbLine
 10
-562.0031851106742
 20
609.069949983228
 30
0.0
 11
-652.0031108787275
 21
609.069949983228
 31
0.0
  0
LINE
  5
B5
330
1F
100
AcDbEntity
  8
A-1
  6
Continuous
 62
     2
370
     9
100
AcDbLine
 10
-552.0031026307335
 20
599.0701644310742
 30
0.0
 11
-552.0031026307335
 21
592.9700799716147
 31
0.0
  0
LINE
  5
B6
330
1F
100
AcDbEntity
  8
A-1
  6
Continuous
 62
     2
370
     9
100
AcDbLine
 10
-561.0031323235121
 20
599.0701644310742
 30
0.0
 11
-561.0031323235121
 21
592.9700799716147
 31
0.0
  0
LINE
  5
B7
330
1F
100
AcDbEntity
  8
A-1
  6
Continuous
 62
     2
370
     9
100
AcDbLine
 10
-652.0031108787275
 20
600.0700687543429
 30
0.0
 11
-562.0030366467806
 21
600.0700687543429
 31
0.0
  0
LINE
  5
B8
330
1F
100
AcDbEntity
  8
A-1
  6
Continuous
 62
     2
370
     9
100
AcDbLine
 10
-653.0032378978365
 20
599.0701644310742
 30
0.0
 11
-653.0032378978365
 21
592.9700799716147
 31
0.0
  0
LINE
  5
B9
330
1F
100
AcDbEntity
  8
A-1
  6
JWW_CENTER1
 62
     2
370
     9
100
AcDbLine
 10
-657.503178512279
 20
584.8626152070455
 30
0.0
 11
-657.503178512279
 21
600.4602318666739
 31
0.0
  0
LINE
  5
BA
330
1F
100
AcDbEntity
  8
A-1
  6
JWW_CENTER1
 62
     2
370
     9
100
AcDbLine
 10
-556.5029690132292
 20
584.8626152070455
 30
0.0
 11
-556.5029690132292
 21
600.4602318666739
 31
0.0
  0
LINE
  5
BB
330
1F
100
AcDbEntity
  8
A-1
  6
JWW_CENTER1
 62
     2
370
     9
100
AcDbLine
 10
-548.3402756802477
 20
592.9700799716147
 30
0.0
 11
-564.7471690237866
 21
592.9700799716147
 31
0.0
  0
LINE
  5
BC
330
1F
100
AcDbEntity
  8
A-2
  6
Continuous
 62
     3
370
     9
100
AcDbLine
 10
-744.5025747591117
 20
522.9705418592836
 30
0.0
 11
-709.6027219033263
 21
533.9700832708123
 31
0.0
  0
LINE
  5
BD
330
1F
100
AcDbEntity
  8
A-2
  6
Continuous
 62
     3
370
     9
100
AcDbLine
 10
-709.2025374781784
 20
522.9705418592836
 30
0.0
 11
-674.3026103904463
 21
533.9700832708123
 31
0.0
  0
LINE
  5
BE
330
1F
100
AcDbEntity
  8
A-2
  6
Continuous
 62
     3
370
     9
100
AcDbLine
 10
-673.9025744291921
 20
522.9705418592836
 30
0.0
 11
-639.0027958053533
 21
533.9700832708123
 31
0.0
  0
LINE
  5
BF
330
1F
100
AcDbEntity
  8
A-2
  6
Continuous
 62
     3
370
     9
100
AcDbLine
 10
-638.6025371482588
 20
522.9705418592836
 30
0.0
 11
-603.70275852442
 21
533.9700832708123
 31
0.0
  0
LINE
  5
C0
330
1F
100
AcDbEntity
  8
A-2
  6
Continuous
 62
     3
370
     9
100
AcDbLine
 10
-603.3024998673254
 20
522.9705418592836
 30
0.0
 11
-568.4027212434867
 21
533.9700832708123
 31
0.0
  0
LINE
  5
C1
330
1F
100
AcDbEntity
  8
A-2
  6
Continuous
 62
     3
370
     9
100
AcDbLine
 10
-568.002536818339
 20
522.9705418592836
 30
0.0
 11
-533.1027581945002
 21
533.9700832708123
 31
0.0
  0
LINE
  5
C2
330
1F
100
AcDbEntity
  8
A-2
  6
Continuous
 62
     3
370
     9
100
AcDbLine
 10
-532.7024995374056
 20
522.9705418592836
 30
0.0
 11
-497.8027209135669
 21
533.9700832708123
 31
0.0
  0
LINE
  5
C3
330
1F
100
AcDbEntity
  8
A-2
  6
Continuous
 62
     3
370
     9
100
AcDbLine
 10
-751.5030185011938
 20
531.8898071939542
 30
0.0
 11
-744.9026849523128
 21
533.9700832708123
 31
0.0
  0
LINE
  5
C4
330
1F
100
AcDbEntity
  8
A-2
  6
Continuous
 62
     3
370
     9
100
AcDbLine
 10
-744.5025747591117
 20
-77.02973032452127
 30
0.0
 11
-709.6027219033263
 21
-66.03004044909909
 31
0.0
  0
LINE
  5
C5
330
1F
100
AcDbEntity
  8
A-2
  6
Continuous
 62
     3
370
     9
100
AcDbLine
 10
-709.2025374781784
 20
-77.02973032452127
 30
0.0
 11
-674.3026103904463
 21
-66.03004044909909
 31
0.0
  0
LINE
  5
C6
330
1F
100
AcDbEntity
  8
A-2
  6
Continuous
 62
     3
370
     9
100
AcDbLine
 10
-673.9025744291921
 20
-77.02973032452127
 30
0.0
 11
-639.0027958053533
 21
-66.03004044909909
 31
0.0
  0
LINE
  5
C7
330
1F
100
AcDbEntity
  8
A-2
  6
Continuous
 62
     3
370
     9
100
AcDbLine
 10
-638.6025371482588
 20
-77.02973032452127
 30
0.0
 11
-603.70275852442
 21
-66.03004044909909
 31
0.0
  0
LINE
  5
C8
330
1F
100
AcDbEntity
  8
A-2
  6
Continuous
 62
     3
370
     9
100
AcDbLine
 10
-603.3024998673254
 20
-77.02973032452127
 30
0.0
 11
-568.4027212434867
 21
-66.03004044909909
 31
0.0
  0
LINE
  5
C9
330
1F
100
AcDbEntity
  8
A-2
  6
Continuous
 62
     3
370
     9
100
AcDbLine
 10
-568.002536818339
 20
-77.02973032452127
 30
0.0
 11
-533.1027581945002
 21
-66.03004044909909
 31
0.0
  0
LINE
  5
CA
330
1F
100
AcDbEntity
  8
A-2
  6
Continuous
 62
     3
370
     9
100
AcDbLine
 10
-532.7024995374056
 20
-77.02973032452127
 30
0.0
 11
-497.8027209135669
 21
-66.03004044909909
 31
0.0
  0
LINE
  5
CB
330
1F
100
AcDbEntity
  8
A-2
  6
Continuous
 62
     3
370
     9
100
AcDbLine
 10
-751.5030185011938
 20
-68.11031652595705
 30
0.0
 11
-744.9026849523128
 21
-66.03004044909909
 31
0.0
  0
LINE
  5
CC
330
1F
100
AcDbEntity
  8
A-1
  6
Continuous
 62
     2
370
     9
100
AcDbLine
 10
-768.5031735634825
 20
588.4699908932786
 30
0.0
 11
-445.5031224259191
 21
588.4699908932786
 31
0.0
  0
LINE
  5
CD
330
1F
100
AcDbEntity
  8
A-2
  6
Continuous
 62
     3
370
     9
100
AcDbLine
 10
-744.5025747591117
 20
333.9695471511966
 30
0.0
 11
-744.5025747591117
 21
422.9704593793429
 31
0.0
  0
LINE
  5
CE
330
1F
100
AcDbEntity
  8
A-2
  6
Continuous
 62
     3
370
     9
100
AcDbLine
 10
-469.5030531427687
 20
422.9704593793429
 30
0.0
 11
-469.5030531427687
 21
333.9695471511966
 31
0.0
  0
LINE
  5
CF
330
1F
100
AcDbEntity
  8
A-2
  6
Continuous
 62
     3
370
     9
100
AcDbLine
 10
-504.8026450320214
 20
422.9704593793429
 30
0.0
 11
-504.8026450320214
 21
333.9695471511966
 31
0.0
  0
LINE
  5
D0
330
1F
100
AcDbEntity
  8
A-2
  6
Continuous
 62
     3
370
     9
100
AcDbLine
 10
-497.8027209135669
 20
422.9704593793429
 30
0.0
 11
-497.8027209135669
 21
333.9695471511966
 31
0.0
  0
LINE
  5
D1
330
1F
100
AcDbEntity
  8
A-2
  6
Continuous
 62
     3
370
     9
100
AcDbLine
 10
-540.1023111532206
 20
422.9704593793429
 30
0.0
 11
-540.1023111532206
 21
333.9695471511966
 31
0.0
  0
LINE
  5
D2
330
1F
100
AcDbEntity
  8
A-2
  6
Continuous
 62
     3
370
     9
100
AcDbLine
 10
-533.1023870347663
 20
422.9704593793429
 30
0.0
 11
-533.1023870347663
 21
333.9695471511966
 31
0.0
  0
LINE
  5
D3
330
1F
100
AcDbEntity
  8
A-2
  6
Continuous
 62
     3
370
     9
100
AcDbLine
 10
-575.4025711299944
 20
422.9704593793429
 30
0.0
 11
-575.4025711299944
 21
333.9695471511966
 31
0.0
  0
LINE
  5
D4
330
1F
100
AcDbEntity
  8
A-2
  6
Continuous
 62
     3
370
     9
100
AcDbLine
 10
-568.4024985476465
 20
422.9704593793429
 30
0.0
 11
-568.4024985476465
 21
333.9695471511966
 31
0.0
  0
LINE
  5
D5
330
1F
100
AcDbEntity
  8
A-2
  6
Continuous
 62
     3
370
     9
100
AcDbLine
 10
-610.7027568748213
 20
422.9704593793429
 30
0.0
 11
-610.7027568748213
 21
333.9695471511966
 31
0.0
  0
LINE
  5
D6
330
1F
100
AcDbEntity
  8
A-2
  6
Continuous
 62
     3
370
     9
100
AcDbLine
 10
-603.70275852442
 20
422.9704593793429
 30
0.0
 11
-603.70275852442
 21
333.9695471511966
 31
0.0
  0
LINE
  5
D7
330
1F
100
AcDbEntity
  8
A-2
  6
Continuous
 62
     3
370
     9
100
AcDbLine
 10
-646.0023487640738
 20
422.9704593793429
 30
0.0
 11
-646.0023487640738
 21
333.9695471511966
 31
0.0
  0
LINE
  5
D8
330
1F
100
AcDbEntity
  8
A-2
  6
Continuous
 62
     3
370
     9
100
AcDbLine
 10
-639.0024246456194
 20
422.9704593793429
 30
0.0
 11
-639.0024246456194
 21
333.9695471511966
 31
0.0
  0
LINE
  5
D9
330
1F
100
AcDbEntity
  8
A-2
  6
Continuous
 62
     3
370
     9
100
AcDbLine
 10
-681.3024602769538
 20
422.9704593793429
 30
0.0
 11
-681.3024602769538
 21
333.9695471511966
 31
0.0
  0
LINE
  5
DA
330
1F
100
AcDbEntity
  8
A-2
  6
Continuous
 62
     3
370
     9
100
AcDbLine
 10
-674.3025361584994
 20
422.9704593793429
 30
0.0
 11
-674.3025361584994
 21
333.9695471511966
 31
0.0
  0
LINE
  5
DB
330
1F
100
AcDbEntity
  8
A-2
  6
Continuous
 62
     3
370
     9
100
AcDbLine
 10
-716.6027202537275
 20
422.9704593793429
 30
0.0
 11
-716.6027202537275
 21
333.9695471511966
 31
0.0
  0
LINE
  5
DC
330
1F
100
AcDbEntity
  8
A-2
  6
Continuous
 62
     3
370
     9
100
AcDbLine
 10
-709.6027219033263
 20
422.9704593793429
 30
0.0
 11
-709.6027219033263
 21
333.9695471511966
 31
0.0
  0
LINE
  5
DD
330
1F
100
AcDbEntity
  8
A-2
  6
Continuous
 62
     3
370
     9
100
AcDbLine
 10
-744.5025747591117
 20
422.9704593793429
 30
0.0
 11
-709.6027219033263
 21
433.9700007908714
 31
0.0
  0
LINE
  5
DE
330
1F
100
AcDbEntity
  8
A-2
  6
Continuous
 62
     3
370
     9
100
AcDbLine
 10
-709.2025374781784
 20
422.9704593793429
 30
0.0
 11
-674.3026103904463
 21
433.9700007908714
 31
0.0
  0
LINE
  5
DF
330
1F
100
AcDbEntity
  8
A-2
  6
Continuous
 62
     3
370
     9
100
AcDbLine
 10
-673.9025744291921
 20
422.9704593793429
 30
0.0
 11
-639.0027958053533
 21
433.9700007908714
 31
0.0
  0
LINE
  5
E0
330
1F
100
AcDbEntity
  8
A-2
  6
Continuous
 62
     3
370
     9
100
AcDbLine
 10
-638.6025371482588
 20
422.9704593793429
 30
0.0
 11
-603.70275852442
 21
433.9700007908714
 31
0.0
  0
LINE
  5
E1
330
1F
100
AcDbEntity
  8
A-2
  6
Continuous
 62
     3
370
     9
100
AcDbLine
 10
-603.3024998673254
 20
422.9704593793429
 30
0.0
 11
-568.4027212434867
 21
433.9700007908714
 31
0.0
  0
LINE
  5
E2
330
1F
100
AcDbEntity
  8
A-2
  6
Continuous
 62
     3
370
     9
100
AcDbLine
 10
-568.002536818339
 20
422.9704593793429
 30
0.0
 11
-533.1027581945002
 21
433.9700007908714
 31
0.0
  0
LINE
  5
E3
330
1F
100
AcDbEntity
  8
A-2
  6
Continuous
 62
     3
370
     9
100
AcDbLine
 10
-532.7024995374056
 20
422.9704593793429
 30
0.0
 11
-497.8027209135669
 21
433.9700007908714
 31
0.0
  0
LINE
  5
E4
330
1F
100
AcDbEntity
  8
A-2
  6
Continuous
 62
     3
370
     9
100
AcDbLine
 10
-751.5030185011938
 20
431.8897247140135
 30
0.0
 11
-744.9026849523128
 21
433.9700007908714
 31
0.0
  0
LINE
  5
E5
330
1F
100
AcDbEntity
  8
A-2
  6
Continuous
 62
     3
370
     9
100
AcDbLine
 10
-744.5025747591117
 20
233.9695389032025
 30
0.0
 11
-744.5025747591117
 21
322.9704511313486
 31
0.0
  0
LINE
  5
E6
330
1F
100
AcDbEntity
  8
A-2
  6
Continuous
 62
     3
370
     9
100
AcDbLine
 10
-469.5030531427687
 20
322.9704511313486
 30
0.0
 11
-469.5030531427687
 21
233.9695389032025
 31
0.0
  0
LINE
  5
E7
330
1F
100
AcDbEntity
  8
A-2
  6
Continuous
 62
     3
370
     9
100
AcDbLine
 10
-504.8026450320214
 20
322.9704511313486
 30
0.0
 11
-504.8026450320214
 21
233.9695389032025
 31
0.0
  0
LINE
  5
E8
330
1F
100
AcDbEntity
  8
A-2
  6
Continuous
 62
     3
370
     9
100
AcDbLine
 10
-497.8027209135669
 20
322.9704511313486
 30
0.0
 11
-497.8027209135669
 21
233.9695389032025
 31
0.0
  0
LINE
  5
E9
330
1F
100
AcDbEntity
  8
A-2
  6
Continuous
 62
     3
370
     9
100
AcDbLine
 10
-540.1023111532206
 20
322.9704511313486
 30
0.0
 11
-540.1023111532206
 21
233.9695389032025
 31
0.0
  0
LINE
  5
EA
330
1F
100
AcDbEntity
  8
A-2
  6
Continuous
 62
     3
370
     9
100
AcDbLine
 10
-533.1023870347663
 20
322.9704511313486
 30
0.0
 11
-533.1023870347663
 21
233.9695389032025
 31
0.0
  0
LINE
  5
EB
330
1F
100
AcDbEntity
  8
A-2
  6
Continuous
 62
     3
370
     9
100
AcDbLine
 10
-575.4025711299944
 20
322.9704511313486
 30
0.0
 11
-575.4025711299944
 21
233.9695389032025
 31
0.0
  0
LINE
  5
EC
330
1F
100
AcDbEntity
  8
A-2
  6
Continuous
 62
     3
370
     9
100
AcDbLine
 10
-568.4024985476465
 20
322.9704511313486
 30
0.0
 11
-568.4024985476465
 21
233.9695389032025
 31
0.0
  0
LINE
  5
ED
330
1F
100
AcDbEntity
  8
A-2
  6
Continuous
 62
     3
370
     9
100
AcDbLine
 10
-610.7027568748213
 20
322.9704511313486
 30
0.0
 11
-610.7027568748213
 21
233.9695389032025
 31
0.0
  0
LINE
  5
EE
330
1F
100
AcDbEntity
  8
A-2
  6
Continuous
 62
     3
370
     9
100
AcDbLine
 10
-603.70275852442
 20
322.9704511313486
 30
0.0
 11
-603.70275852442
 21
233.9695389032025
 31
0.0
  0
LINE
  5
EF
330
1F
100
AcDbEntity
  8
A-2
  6
Continuous
 62
     3
370
     9
100
AcDbLine
 10
-646.0023487640738
 20
322.9704511313486
 30
0.0
 11
-646.0023487640738
 21
233.9695389032025
 31
0.0
  0
LINE
  5
F0
330
1F
100
AcDbEntity
  8
A-2
  6
Continuous
 62
     3
370
     9
100
AcDbLine
 10
-639.0024246456194
 20
322.9704511313486
 30
0.0
 11
-639.0024246456194
 21
233.9695389032025
 31
0.0
  0
LINE
  5
F1
330
1F
100
AcDbEntity
  8
A-2
  6
Continuous
 62
     3
370
     9
100
AcDbLine
 10
-681.3024602769538
 20
322.9704511313486
 30
0.0
 11
-681.3024602769538
 21
233.9695389032025
 31
0.0
  0
LINE
  5
F2
330
1F
100
AcDbEntity
  8
A-2
  6
Continuous
 62
     3
370
     9
100
AcDbLine
 10
-674.3025361584994
 20
322.9704511313486
 30
0.0
 11
-674.3025361584994
 21
233.9695389032025
 31
0.0
  0
LINE
  5
F3
330
1F
100
AcDbEntity
  8
A-2
  6
Continuous
 62
     3
370
     9
100
AcDbLine
 10
-716.6027202537275
 20
322.9704511313486
 30
0.0
 11
-716.6027202537275
 21
233.9695389032025
 31
0.0
  0
LINE
  5
F4
330
1F
100
AcDbEntity
  8
A-2
  6
Continuous
 62
     3
370
     9
100
AcDbLine
 10
-709.6027219033263
 20
322.9704511313486
 30
0.0
 11
-709.6027219033263
 21
233.9695389032025
 31
0.0
  0
LINE
  5
F5
330
1F
100
AcDbEntity
  8
A-2
  6
Continuous
 62
     3
370
     9
100
AcDbLine
 10
-744.5025747591117
 20
322.9704511313486
 30
0.0
 11
-709.6027219033263
 21
333.9700667748242
 31
0.0
  0
LINE
  5
F6
330
1F
100
AcDbEntity
  8
A-2
  6
Continuous
 62
     3
370
     9
100
AcDbLine
 10
-709.2025374781784
 20
322.9704511313486
 30
0.0
 11
-674.3026103904463
 21
333.9700667748242
 31
0.0
  0
LINE
  5
F7
330
1F
100
AcDbEntity
  8
A-2
  6
Continuous
 62
     3
370
     9
100
AcDbLine
 10
-673.9025744291921
 20
322.9704511313486
 30
0.0
 11
-639.0027958053533
 21
333.9700667748242
 31
0.0
  0
LINE
  5
F8
330
1F
100
AcDbEntity
  8
A-2
  6
Continuous
 62
     3
370
     9
100
AcDbLine
 10
-638.6025371482588
 20
322.9704511313486
 30
0.0
 11
-603.70275852442
 21
333.9700667748242
 31
0.0
  0
LINE
  5
F9
330
1F
100
AcDbEntity
  8
A-2
  6
Continuous
 62
     3
370
     9
100
AcDbLine
 10
-603.3024998673254
 20
322.9704511313486
 30
0.0
 11
-568.4027212434867
 21
333.9700667748242
 31
0.0
  0
LINE
  5
FA
330
1F
100
AcDbEntity
  8
A-2
  6
Continuous
 62
     3
370
     9
100
AcDbLine
 10
-568.002536818339
 20
322.9704511313486
 30
0.0
 11
-533.1027581945002
 21
333.9700667748242
 31
0.0
  0
LINE
  5
FB
330
1F
100
AcDbEntity
  8
A-2
  6
Continuous
 62
     3
370
     9
100
AcDbLine
 10
-532.7024995374056
 20
322.9704511313486
 30
0.0
 11
-497.8027209135669
 21
333.9700667748242
 31
0.0
  0
LINE
  5
FC
330
1F
100
AcDbEntity
  8
A-2
  6
Continuous
 62
     3
370
     9
100
AcDbLine
 10
-751.5030185011938
 20
331.8897906979661
 30
0.0
 11
-744.9026849523128
 21
333.9700667748242
 31
0.0
  0
LINE
  5
FD
330
1F
100
AcDbEntity
  8
A-2
  6
Continuous
 62
     3
370
     9
100
AcDbLine
 10
-744.5025747591117
 20
133.9695306552084
 30
0.0
 11
-744.5025747591117
 21
222.9704428833545
 31
0.0
  0
LINE
  5
FE
330
1F
100
AcDbEntity
  8
A-2
  6
Continuous
 62
     3
370
     9
100
AcDbLine
 10
-469.5030531427687
 20
222.9704428833545
 30
0.0
 11
-469.5030531427687
 21
133.9695306552084
 31
0.0
  0
LINE
  5
FF
330
1F
100
AcDbEntity
  8
A-2
  6
Continuous
 62
     3
370
     9
100
AcDbLine
 10
-504.8026450320214
 20
222.9704428833545
 30
0.0
 11
-504.8026450320214
 21
133.9695306552084
 31
0.0
  0
LINE
  5
100
330
1F
100
AcDbEntity
  8
A-2
  6
Continuous
 62
     3
370
     9
100
AcDbLine
 10
-497.8027209135669
 20
222.9704428833545
 30
0.0
 11
-497.8027209135669
 21
133.9695306552084
 31
0.0
  0
LINE
  5
101
330
1F
100
AcDbEntity
  8
A-2
  6
Continuous
 62
     3
370
     9
100
AcDbLine
 10
-540.1023111532206
 20
222.9704428833545
 30
0.0
 11
-540.1023111532206
 21
133.9695306552084
 31
0.0
  0
LINE
  5
102
330
1F
100
AcDbEntity
  8
A-2
  6
Continuous
 62
     3
370
     9
100
AcDbLine
 10
-533.1023870347663
 20
222.9704428833545
 30
0.0
 11
-533.1023870347663
 21
133.9695306552084
 31
0.0
  0
LINE
  5
103
330
1F
100
AcDbEntity
  8
A-2
  6
Continuous
 62
     3
370
     9
100
AcDbLine
 10
-575.4025711299944
 20
222.9704428833545
 30
0.0
 11
-575.4025711299944
 21
133.9695306552084
 31
0.0
  0
LINE
  5
104
330
1F
100
AcDbEntity
  8
A-2
  6
Continuous
 62
     3
370
     9
100
AcDbLine
 10
-568.4024985476465
 20
222.9704428833545
 30
0.0
 11
-568.4024985476465
 21
133.9695306552084
 31
0.0
  0
LINE
  5
105
330
1F
100
AcDbEntity
  8
A-2
  6
Continuous
 62
     3
370
     9
100
AcDbLine
 10
-610.7027568748213
 20
222.9704428833545
 30
0.0
 11
-610.7027568748213
 21
133.9695306552084
 31
0.0
  0
LINE
  5
106
330
1F
100
AcDbEntity
  8
A-2
  6
Continuous
 62
     3
370
     9
100
AcDbLine
 10
-603.70275852442
 20
222.9704428833545
 30
0.0
 11
-603.70275852442
 21
133.9695306552084
 31
0.0
  0
LINE
  5
107
330
1F
100
AcDbEntity
  8
A-2
  6
Continuous
 62
     3
370
     9
100
AcDbLine
 10
-646.0023487640738
 20
222.9704428833545
 30
0.0
 11
-646.0023487640738
 21
133.9695306552084
 31
0.0
  0
LINE
  5
108
330
1F
100
AcDbEntity
  8
A-2
  6
Continuous
 62
     3
370
     9
100
AcDbLine
 10
-639.0024246456194
 20
222.9704428833545
 30
0.0
 11
-639.0024246456194
 21
133.9695306552084
 31
0.0
  0
LINE
  5
109
330
1F
100
AcDbEntity
  8
A-2
  6
Continuous
 62
     3
370
     9
100
AcDbLine
 10
-681.3024602769538
 20
222.9704428833545
 30
0.0
 11
-681.3024602769538
 21
133.9695306552084
 31
0.0
  0
LINE
  5
10A
330
1F
100
AcDbEntity
  8
A-2
  6
Continuous
 62
     3
370
     9
100
AcDbLine
 10
-674.3025361584994
 20
222.9704428833545
 30
0.0
 11
-674.3025361584994
 21
133.9695306552084
 31
0.0
  0
LINE
  5
10B
330
1F
100
AcDbEntity
  8
A-2
  6
Continuous
 62
     3
370
     9
100
AcDbLine
 10
-716.6027202537275
 20
222.9704428833545
 30
0.0
 11
-716.6027202537275
 21
133.9695306552084
 31
0.0
  0
LINE
  5
10C
330
1F
100
AcDbEntity
  8
A-2
  6
Continuous
 62
     3
370
     9
100
AcDbLine
 10
-709.6027219033263
 20
222.9704428833545
 30
0.0
 11
-709.6027219033263
 21
133.9695306552084
 31
0.0
  0
LINE
  5
10D
330
1F
100
AcDbEntity
  8
A-2
  6
Continuous
 62
     3
370
     9
100
AcDbLine
 10
-744.5025747591117
 20
222.9704428833545
 30
0.0
 11
-709.6027219033263
 21
233.9699842948833
 31
0.0
  0
LINE
  5
10E
330
1F
100
AcDbEntity
  8
A-2
  6
Continuous
 62
     3
370
     9
100
AcDbLine
 10
-709.2025374781784
 20
222.9704428833545
 30
0.0
 11
-674.3026103904463
 21
233.9699842948833
 31
0.0
  0
LINE
  5
10F
330
1F
100
AcDbEntity
  8
A-2
  6
Continuous
 62
     3
370
     9
100
AcDbLine
 10
-673.9025744291921
 20
222.9704428833545
 30
0.0
 11
-639.0027958053533
 21
233.9699842948833
 31
0.0
  0
LINE
  5
110
330
1F
100
AcDbEntity
  8
A-2
  6
Continuous
 62
     3
370
     9
100
AcDbLine
 10
-638.6025371482588
 20
222.9704428833545
 30
0.0
 11
-603.70275852442
 21
233.9699842948833
 31
0.0
  0
LINE
  5
111
330
1F
100
AcDbEntity
  8
A-2
  6
Continuous
 62
     3
370
     9
100
AcDbLine
 10
-603.3024998673254
 20
222.9704428833545
 30
0.0
 11
-568.4027212434867
 21
233.9699842948833
 31
0.0
  0
LINE
  5
112
330
1F
100
AcDbEntity
  8
A-2
  6
Continuous
 62
     3
370
     9
100
AcDbLine
 10
-568.002536818339
 20
222.9704428833545
 30
0.0
 11
-533.1027581945002
 21
233.9699842948833
 31
0.0
  0
LINE
  5
113
330
1F
100
AcDbEntity
  8
A-2
  6
Continuous
 62
     3
370
     9
100
AcDbLine
 10
-532.7024995374056
 20
222.9704428833545
 30
0.0
 11
-497.8027209135669
 21
233.9699842948833
 31
0.0
  0
LINE
  5
114
330
1F
100
AcDbEntity
  8
A-2
  6
Continuous
 62
     3
370
     9
100
AcDbLine
 10
-751.5030185011938
 20
231.889782449972
 30
0.0
 11
-744.9026849523128
 21
233.9699842948833
 31
0.0
  0
LINE
  5
115
330
1F
100
AcDbEntity
  8
A-9
  6
Continuous
 62
     4
370
     9
100
AcDbLine
 10
-720.503015201996
 20
-131.5303060345086
 30
0.0
 11
-720.503015201996
 21
-159.5302252041666
 31
0.0
  0
LINE
  5
116
330
1F
100
AcDbEntity
  8
A-9
  6
Continuous
 62
     4
370
     9
100
AcDbLine
 10
-737.0032181026506
 20
-99.83311629105424
 30
0.0
 11
-724.0031999570635
 21
-99.83311629105424
 31
0.0
  0
LINE
  5
117
330
1F
100
AcDbEntity
  8
A-9
  6
Continuous
 62
     4
370
     9
100
AcDbLine
 10
-737.0032181026506
 20
-99.83311629105424
 30
0.0
 11
-737.0032181026506
 21
-117.0302829401252
 31
0.0
  0
LINE
  5
118
330
1F
100
AcDbEntity
  8
A-9
  6
Continuous
 62
     4
370
     9
100
AcDbLine
 10
-737.0032181026506
 20
-121.5302235545678
 30
0.0
 11
-737.0032181026506
 21
-125.5302862393228
 31
0.0
  0
LINE
  5
119
330
1F
100
AcDbEntity
  8
A-9
  6
Continuous
 62
     4
370
     9
100
AcDbLine
 10
-724.0031999570635
 20
-99.83311629105424
 30
0.0
 11
-724.0031999570635
 21
-117.0302829401252
 31
0.0
  0
LINE
  5
11A
330
1F
100
AcDbEntity
  8
A-9
  6
Continuous
 62
     4
370
     9
100
AcDbLine
 10
-724.0031999570635
 20
-121.5302235545678
 30
0.0
 11
-724.0031999570635
 21
-125.5302862393228
 31
0.0
  0
LINE
  5
11B
330
1F
100
AcDbEntity
  8
A-9
  6
JWW_CENTER1
 62
     4
370
     9
100
AcDbLine
 10
-730.5030976819369
 20
-92.82688245712268
 30
0.0
 11
-730.5030976819369
 21
-166.0221058787865
 31
0.0
  0
LINE
  5
11C
330
1F
100
AcDbEntity
  8
A-9
  6
Continuous
 62
     4
370
     9
100
AcDbLine
 10
-740.5031059299309
 20
-131.5303060345086
 30
0.0
 11
-740.5031059299309
 21
-159.5302252041666
 31
0.0
  0
LINE
  5
11D
330
1F
100
AcDbEntity
  8
A-9
  6
Continuous
 62
     4
370
     9
100
AcDbLine
 10
-740.5031059299309
 20
-159.5302252041666
 30
0.0
 11
-720.503015201996
 21
-159.5302252041666
 31
0.0
  0
LINE
  5
11E
330
1F
100
AcDbEntity
  8
A-9
  6
JWW_CENTER1
 62
     4
370
     9
100
AcDbLine
 10
-730.5030976819369
 20
599.3653106515135
 30
0.0
 11
-730.5030976819369
 21
553.0086475919695
 31
0.0
  0
LINE
  5
11F
330
1F
100
AcDbEntity
  8
A-1
  6
JWW_DASHED3
 62
     2
370
     9
100
AcDbLine
 10
-762.50307953635
 20
528.4702383331013
 30
0.0
 11
-451.5032164530517
 21
528.4702383331013
 31
0.0
  0
LINE
  5
120
330
1F
100
AcDbEntity
  8
A-1
  6
JWW_DASHED3
 62
     2
370
     9
100
AcDbLine
 10
-762.50307953635
 20
-71.53025654654408
 30
0.0
 11
-451.5032164530517
 21
-71.53025654654408
 31
0.0
  0
LINE
  5
121
330
1F
100
AcDbEntity
  8
A-1
  6
Continuous
 62
     2
370
     9
100
AcDbLine
 10
-768.5031735634825
 20
582.4698226341992
 30
0.0
 11
-445.5031224259191
 21
582.4698226341992
 31
0.0
  0
LINE
  5
122
330
1F
100
AcDbEntity
  8
A-1
  6
Continuous
 62
     2
370
     9
100
AcDbLine
 10
-768.5031735634825
 20
-125.5299150795888
 30
0.0
 11
-445.5031224259191
 21
-125.5299150795888
 31
0.0
  0
LINE
  5
123
330
1F
100
AcDbEntity
  8
A-2
  6
Continuous
 62
     3
370
     9
100
AcDbLine
 10
-462.5029805604208
 20
-117.0301344762316
 30
0.0
 11
-751.5030185011938
 21
-117.0301344762316
 31
0.0
  0
LINE
  5
124
330
1F
100
AcDbEntity
  8
A-2
  6
Continuous
 62
     3
370
     9
100
AcDbLine
 10
-751.5030185011938
 20
533.9700832708123
 30
0.0
 11
-462.5029805604208
 21
533.9700832708123
 31
0.0
  0
LINE
  5
125
330
1F
100
AcDbEntity
  8
A-2
  6
Continuous
 62
     3
370
     9
100
AcDbLine
 10
-751.5030185011938
 20
522.9705418592836
 30
0.0
 11
-462.5029805604208
 21
522.9705418592836
 31
0.0
  0
LINE
  5
126
330
1F
100
AcDbEntity
  8
A-2
  6
Continuous
 62
     3
370
     9
100
AcDbLine
 10
-751.5030185011938
 20
573.9701162627888
 30
0.0
 11
-462.5029805604208
 21
573.9701162627888
 31
0.0
  0
LINE
  5
127
330
1F
100
AcDbEntity
  8
A-2
  6
Continuous
 62
     3
370
     9
100
AcDbLine
 10
-751.5030185011938
 20
578.4700568772313
 30
0.0
 11
-462.5029805604208
 21
578.4700568772313
 31
0.0
  0
LINE
  5
128
330
1F
100
AcDbEntity
  8
A-2
  6
Continuous
 62
     3
370
     9
100
AcDbLine
 10
-751.5030185011938
 20
-66.03041160883299
 30
0.0
 11
-462.5029805604208
 21
-66.03041160883299
 31
0.0
  0
LINE
  5
129
330
1F
100
AcDbEntity
  8
A-2
  6
Continuous
 62
     3
370
     9
100
AcDbLine
 10
-751.5030185011938
 20
-77.03010148425525
 30
0.0
 11
-462.5029805604208
 21
-77.03010148425525
 31
0.0
  0
LINE
  5
12A
330
1F
100
AcDbEntity
  8
A-2
  6
Continuous
 62
     3
370
     9
100
AcDbLine
 10
-751.5030185011938
 20
433.9700007908714
 30
0.0
 11
-462.5029805604208
 21
433.9700007908714
 31
0.0
  0
LINE
  5
12B
330
1F
100
AcDbEntity
  8
A-2
  6
Continuous
 62
     3
370
     9
100
AcDbLine
 10
-751.5030185011938
 20
422.9704593793429
 30
0.0
 11
-462.5029805604208
 21
422.9704593793429
 31
0.0
  0
LINE
  5
12C
330
1F
100
AcDbEntity
  8
A-2
  6
Continuous
 62
     3
370
     9
100
AcDbLine
 10
-751.5030185011938
 20
333.9700667748242
 30
0.0
 11
-462.5029805604208
 21
333.9700667748242
 31
0.0
  0
LINE
  5
12D
330
1F
100
AcDbEntity
  8
A-2
  6
Continuous
 62
     3
370
     9
100
AcDbLine
 10
-751.5030185011938
 20
322.9704511313486
 30
0.0
 11
-462.5029805604208
 21
322.9704511313486
 31
0.0
  0
LINE
  5
12E
330
1F
100
AcDbEntity
  8
A-2
  6
Continuous
 62
     3
370
     9
100
AcDbLine
 10
-751.5030185011938
 20
233.9699842948833
 30
0.0
 11
-462.5029805604208
 21
233.9699842948833
 31
0.0
  0
LINE
  5
12F
330
1F
100
AcDbEntity
  8
A-2
  6
Continuous
 62
     3
370
     9
100
AcDbLine
 10
-751.5030185011938
 20
222.9704428833545
 30
0.0
 11
-462.5029805604208
 21
222.9704428833545
 31
0.0
  0
LINE
  5
130
330
1F
100
AcDbEntity
  8
A-2
  6
Continuous
 62
     3
370
     9
100
AcDbLine
 10
-498.2018660914597
 20
522.9705418592836
 30
0.0
 11
-463.3020874676209
 21
533.9700832708123
 31
0.0
  0
LINE
  5
131
330
1F
100
AcDbEntity
  8
A-2
  6
Continuous
 62
     3
370
     9
100
AcDbLine
 10
-498.2018660914597
 20
-77.02973032452127
 30
0.0
 11
-463.3020874676209
 21
-66.03004044909909
 31
0.0
  0
LINE
  5
132
330
1F
100
AcDbEntity
  8
A-2
  6
Continuous
 62
     3
370
     9
100
AcDbLine
 10
-498.2018660914597
 20
422.9704593793429
 30
0.0
 11
-463.3020874676209
 21
433.9700007908714
 31
0.0
  0
LINE
  5
133
330
1F
100
AcDbEntity
  8
A-2
  6
Continuous
 62
     3
370
     9
100
AcDbLine
 10
-498.2018660914597
 20
322.9704511313486
 30
0.0
 11
-463.3020874676209
 21
333.9700667748242
 31
0.0
  0
LINE
  5
134
330
1F
100
AcDbEntity
  8
A-2
  6
Continuous
 62
     3
370
     9
100
AcDbLine
 10
-498.2018660914597
 20
222.9704428833545
 30
0.0
 11
-463.3020874676209
 21
233.9699842948833
 31
0.0
  0
LINE
  5
135
330
1F
100
AcDbEntity
  8
A-4
  6
Continuous
 62
     7
370
     9
100
AcDbLine
 10
-713.1027581945003
 20
617.4591992178141
 30
0.0
 11
-677.8024982177266
 21
617.4591992178141
 31
0.0
  0
LINE
  5
136
330
1F
100
AcDbEntity
  8
A-4
  6
Continuous
 62
     7
370
     9
100
AcDbLine
 10
-713.1027581945003
 20
561.0470766460235
 30
0.0
 11
-713.1027581945003
 21
619.2591754635911
 31
0.0
  0
LINE
  5
137
330
1F
100
AcDbEntity
  8
A-4
  6
Continuous
 62
     7
370
     9
100
AcDbLine
 10
-677.8024982177266
 20
561.0470766460235
 30
0.0
 11
-677.8024982177266
 21
619.2591754635911
 31
0.0
  0
LINE
  5
138
330
1F
100
AcDbEntity
  8
A-1
  6
JWW_CENTER1
 62
     2
370
     9
100
AcDbLine
 10
-649.3404851792975
 20
592.9700799716147
 30
0.0
 11
-665.7473785228365
 21
592.9700799716147
 31
0.0
  0
LINE
  5
139
330
1F
100
AcDbEntity
  8
A-4
  6
Continuous
 62
     7
370
     9
100
AcDbLine
 10
-768.5031735634825
 20
665.1143274906182
 30
0.0
 11
-607.0031851106742
 21
665.1143274906182
 31
0.0
  0
LINE
  5
13A
330
1F
100
AcDbEntity
  8
A-4
  6
Continuous
 62
     7
370
     9
100
AcDbLine
 10
-768.5031735634825
 20
597.4700205860573
 30
0.0
 11
-768.5031735634825
 21
666.9143037363951
 31
0.0
  0
LINE
  5
13B
330
1F
100
AcDbEntity
  8
A-4
  6
Continuous
 62
     7
370
     9
100
AcDbLine
 10
-607.0031851106742
 20
618.0699796760066
 30
0.0
 11
-607.0031851106742
 21
666.9143037363951
 31
0.0
  0
LINE
  5
13C
330
1F
100
AcDbEntity
  8
A-4
  6
Continuous
 62
     7
370
     9
100
AcDbLine
 10
-607.0031851106742
 20
665.1143274906182
 30
0.0
 11
-445.5031224259191
 21
665.1143274906182
 31
0.0
  0
LINE
  5
13D
330
1F
100
AcDbEntity
  8
A-4
  6
Continuous
 62
     7
370
     9
100
AcDbLine
 10
-445.5031224259191
 20
597.4700205860573
 30
0.0
 11
-445.5031224259191
 21
666.9143037363951
 31
0.0
  0
LINE
  5
13E
330
1F
100
AcDbEntity
  8
A-4
  6
Continuous
 62
     7
370
     9
100
AcDbLine
 10
-768.5031735634825
 20
-328.1780820453828
 30
0.0
 11
-445.5031224259191
 21
-328.1780820453828
 31
0.0
  0
LINE
  5
13F
330
1F
100
AcDbEntity
  8
A-4
  6
Continuous
 62
     7
370
     9
100
AcDbLine
 10
-768.5031735634825
 20
-140.5300387995002
 30
0.0
 11
-768.5031735634825
 21
-329.9780582911599
 31
0.0
  0
LINE
  5
140
330
1F
100
AcDbEntity
  8
A-4
  6
Continuous
 62
     7
370
     9
100
AcDbLine
 10
-445.5031224259191
 20
-140.5300387995002
 30
0.0
 11
-445.5031224259191
 21
-329.9780582911599
 31
0.0
  0
LINE
  5
141
330
1F
100
AcDbEntity
  8
A-4
  6
Continuous
 62
     7
370
     9
100
AcDbLine
 10
-800.8438058217173
 20
-274.4109922016328
 30
0.0
 11
-412.2651001629334
 21
-274.4109922016328
 31
0.0
  0
LINE
  5
142
330
1F
100
AcDbEntity
  8
A-4
  6
Continuous
 62
     7
370
     9
100
AcDbLine
 10
-762.50307953635
 20
-134.5299447723676
 30
0.0
 11
-762.50307953635
 21
-276.2109684474099
 31
0.0
  0
LINE
  5
143
330
1F
100
AcDbEntity
  8
A-4
  6
Continuous
 62
     7
370
     9
100
AcDbLine
 10
-451.5032164530517
 20
-134.5299447723676
 30
0.0
 11
-451.5032164530517
 21
-276.2109684474099
 31
0.0
  0
LINE
  5
144
330
1F
100
AcDbEntity
  8
A-4
  6
Continuous
 62
     7
370
     9
100
AcDbLine
 10
-762.5029310724565
 20
-222.7664164124647
 30
0.0
 11
-751.5030185011938
 21
-222.7664164124647
 31
0.0
  0
LINE
  5
145
330
1F
100
AcDbEntity
  8
A-4
  6
Continuous
 62
     7
370
     9
100
AcDbLine
 10
-762.5029310724565
 20
-231.7664461052434
 30
0.0
 11
-762.5029310724565
 21
-224.5663926582417
 31
0.0
  0
LINE
  5
146
330
1F
100
AcDbEntity
  8
A-4
  6
Continuous
 62
     7
370
     9
100
AcDbLine
 10
-751.5030185011938
 20
-130.5299563195593
 30
0.0
 11
-751.5030185011938
 21
-224.5663926582417
 31
0.0
  0
LINE
  5
147
330
1F
100
AcDbEntity
  8
A-4
  6
Continuous
 62
     7
370
     9
100
AcDbLine
 10
-751.5030185011938
 20
-222.7664164124647
 30
0.0
 11
-462.5029805604208
 21
-222.7664164124647
 31
0.0
  0
LINE
  5
148
330
1F
100
AcDbEntity
  8
A-4
  6
Continuous
 62
     7
370
     9
100
AcDbLine
 10
-462.5029805604208
 20
-130.5299563195593
 30
0.0
 11
-462.5029805604208
 21
-224.5663926582417
 31
0.0
  0
LINE
  5
149
330
1F
100
AcDbEntity
  8
A-4
  6
Continuous
 62
     7
370
     9
100
AcDbLine
 10
-462.5029805604208
 20
-222.7664164124647
 30
0.0
 11
-451.5032164530517
 21
-222.7664164124647
 31
0.0
  0
LINE
  5
14A
330
1F
100
AcDbEntity
  8
A-2
  6
Continuous
 62
     3
370
     9
100
AcDbLine
 10
-744.5025747591117
 20
33.96952240721436
 30
0.0
 11
-744.5025747591117
 21
122.9704346353604
 31
0.0
  0
LINE
  5
14B
330
1F
100
AcDbEntity
  8
A-2
  6
Continuous
 62
     3
370
     9
100
AcDbLine
 10
-469.5030531427687
 20
122.9704346353604
 30
0.0
 11
-469.5030531427687
 21
33.96952240721436
 31
0.0
  0
LINE
  5
14C
330
1F
100
AcDbEntity
  8
A-2
  6
Continuous
 62
     3
370
     9
100
AcDbLine
 10
-504.8026450320214
 20
122.9704346353604
 30
0.0
 11
-504.8026450320214
 21
33.96952240721436
 31
0.0
  0
LINE
  5
14D
330
1F
100
AcDbEntity
  8
A-2
  6
Continuous
 62
     3
370
     9
100
AcDbLine
 10
-497.8027209135669
 20
122.9704346353604
 30
0.0
 11
-497.8027209135669
 21
33.96952240721436
 31
0.0
  0
LINE
  5
14E
330
1F
100
AcDbEntity
  8
A-2
  6
Continuous
 62
     3
370
     9
100
AcDbLine
 10
-540.1023111532206
 20
122.9704346353604
 30
0.0
 11
-540.1023111532206
 21
33.96952240721436
 31
0.0
  0
LINE
  5
14F
330
1F
100
AcDbEntity
  8
A-2
  6
Continuous
 62
     3
370
     9
100
AcDbLine
 10
-533.1023870347663
 20
122.9704346353604
 30
0.0
 11
-533.1023870347663
 21
33.96952240721436
 31
0.0
  0
LINE
  5
150
330
1F
100
AcDbEntity
  8
A-2
  6
Continuous
 62
     3
370
     9
100
AcDbLine
 10
-575.4025711299944
 20
122.9704346353604
 30
0.0
 11
-575.4025711299944
 21
33.96952240721436
 31
0.0
  0
LINE
  5
151
330
1F
100
AcDbEntity
  8
A-2
  6
Continuous
 62
     3
370
     9
100
AcDbLine
 10
-568.4024985476465
 20
122.9704346353604
 30
0.0
 11
-568.4024985476465
 21
33.96952240721436
 31
0.0
  0
LINE
  5
152
330
1F
100
AcDbEntity
  8
A-2
  6
Continuous
 62
     3
370
     9
100
AcDbLine
 10
-610.7027568748213
 20
122.9704346353604
 30
0.0
 11
-610.7027568748213
 21
33.96952240721436
 31
0.0
  0
LINE
  5
153
330
1F
100
AcDbEntity
  8
A-2
  6
Continuous
 62
     3
370
     9
100
AcDbLine
 10
-603.70275852442
 20
122.9704346353604
 30
0.0
 11
-603.70275852442
 21
33.96952240721436
 31
0.0
  0
LINE
  5
154
330
1F
100
AcDbEntity
  8
A-2
  6
Continuous
 62
     3
370
     9
100
AcDbLine
 10
-646.0023487640738
 20
122.9704346353604
 30
0.0
 11
-646.0023487640738
 21
33.96952240721436
 31
0.0
  0
LINE
  5
155
330
1F
100
AcDbEntity
  8
A-2
  6
Continuous
 62
     3
370
     9
100
AcDbLine
 10
-639.0024246456194
 20
122.9704346353604
 30
0.0
 11
-639.0024246456194
 21
33.96952240721436
 31
0.0
  0
LINE
  5
156
330
1F
100
AcDbEntity
  8
A-2
  6
Continuous
 62
     3
370
     9
100
AcDbLine
 10
-681.3024602769538
 20
122.9704346353604
 30
0.0
 11
-681.3024602769538
 21
33.96952240721436
 31
0.0
  0
LINE
  5
157
330
1F
100
AcDbEntity
  8
A-2
  6
Continuous
 62
     3
370
     9
100
AcDbLine
 10
-674.3025361584994
 20
122.9704346353604
 30
0.0
 11
-674.3025361584994
 21
33.96952240721436
 31
0.0
  0
LINE
  5
158
330
1F
100
AcDbEntity
  8
A-2
  6
Continuous
 62
     3
370
     9
100
AcDbLine
 10
-716.6027202537275
 20
122.9704346353604
 30
0.0
 11
-716.6027202537275
 21
33.96952240721436
 31
0.0
  0
LINE
  5
159
330
1F
100
AcDbEntity
  8
A-2
  6
Continuous
 62
     3
370
     9
100
AcDbLine
 10
-709.6027219033263
 20
122.9704346353604
 30
0.0
 11
-709.6027219033263
 21
33.96952240721436
 31
0.0
  0
LINE
  5
15A
330
1F
100
AcDbEntity
  8
A-2
  6
Continuous
 62
     3
370
     9
100
AcDbLine
 10
-744.5025747591117
 20
122.9704346353604
 30
0.0
 11
-709.6027219033263
 21
133.9699760468892
 31
0.0
  0
LINE
  5
15B
330
1F
100
AcDbEntity
  8
A-2
  6
Continuous
 62
     3
370
     9
100
AcDbLine
 10
-709.2025374781784
 20
122.9704346353604
 30
0.0
 11
-674.3026103904463
 21
133.9699760468892
 31
0.0
  0
LINE
  5
15C
330
1F
100
AcDbEntity
  8
A-2
  6
Continuous
 62
     3
370
     9
100
AcDbLine
 10
-673.9025744291921
 20
122.9704346353604
 30
0.0
 11
-639.0027958053533
 21
133.9699760468892
 31
0.0
  0
LINE
  5
15D
330
1F
100
AcDbEntity
  8
A-2
  6
Continuous
 62
     3
370
     9
100
AcDbLine
 10
-638.6025371482588
 20
122.9704346353604
 30
0.0
 11
-603.70275852442
 21
133.9699760468892
 31
0.0
  0
LINE
  5
15E
330
1F
100
AcDbEntity
  8
A-2
  6
Continuous
 62
     3
370
     9
100
AcDbLine
 10
-603.3024998673254
 20
122.9704346353604
 30
0.0
 11
-568.4027212434867
 21
133.9699760468892
 31
0.0
  0
LINE
  5
15F
330
1F
100
AcDbEntity
  8
A-2
  6
Continuous
 62
     3
370
     9
100
AcDbLine
 10
-568.002536818339
 20
122.9704346353604
 30
0.0
 11
-533.1027581945002
 21
133.9699760468892
 31
0.0
  0
LINE
  5
160
330
1F
100
AcDbEntity
  8
A-2
  6
Continuous
 62
     3
370
     9
100
AcDbLine
 10
-532.7024995374056
 20
122.9704346353604
 30
0.0
 11
-497.8027209135669
 21
133.9699760468892
 31
0.0
  0
LINE
  5
161
330
1F
100
AcDbEntity
  8
A-2
  6
Continuous
 62
     3
370
     9
100
AcDbLine
 10
-751.5030185011938
 20
131.8897742019778
 30
0.0
 11
-744.9026849523128
 21
133.9699760468892
 31
0.0
  0
LINE
  5
162
330
1F
100
AcDbEntity
  8
A-2
  6
Continuous
 62
     3
370
     9
100
AcDbLine
 10
-751.5030185011938
 20
133.9699760468892
 30
0.0
 11
-462.5029805604208
 21
133.9699760468892
 31
0.0
  0
LINE
  5
163
330
1F
100
AcDbEntity
  8
A-2
  6
Continuous
 62
     3
370
     9
100
AcDbLine
 10
-751.5030185011938
 20
122.9704346353604
 30
0.0
 11
-462.5029805604208
 21
122.9704346353604
 31
0.0
  0
LINE
  5
164
330
1F
100
AcDbEntity
  8
A-2
  6
Continuous
 62
     3
370
     9
100
AcDbLine
 10
-498.2018660914597
 20
122.9704346353604
 30
0.0
 11
-463.3020874676209
 21
133.9699760468892
 31
0.0
  0
LINE
  5
165
330
1F
100
AcDbEntity
  8
A-2
  6
Continuous
 62
     3
370
     9
100
AcDbLine
 10
-744.5025747591117
 20
-66.0304858407797
 30
0.0
 11
-744.5025747591117
 21
22.97042638736639
 31
0.0
  0
LINE
  5
166
330
1F
100
AcDbEntity
  8
A-2
  6
Continuous
 62
     3
370
     9
100
AcDbLine
 10
-469.5030531427687
 20
22.97042638736639
 30
0.0
 11
-469.5030531427687
 21
-66.0304858407797
 31
0.0
  0
LINE
  5
167
330
1F
100
AcDbEntity
  8
A-2
  6
Continuous
 62
     3
370
     9
100
AcDbLine
 10
-504.8026450320214
 20
22.97042638736639
 30
0.0
 11
-504.8026450320214
 21
-66.0304858407797
 31
0.0
  0
LINE
  5
168
330
1F
100
AcDbEntity
  8
A-2
  6
Continuous
 62
     3
370
     9
100
AcDbLine
 10
-497.8027209135669
 20
22.97042638736639
 30
0.0
 11
-497.8027209135669
 21
-66.0304858407797
 31
0.0
  0
LINE
  5
169
330
1F
100
AcDbEntity
  8
A-2
  6
Continuous
 62
     3
370
     9
100
AcDbLine
 10
-540.1023111532206
 20
22.97042638736639
 30
0.0
 11
-540.1023111532206
 21
-66.0304858407797
 31
0.0
  0
LINE
  5
16A
330
1F
100
AcDbEntity
  8
A-2
  6
Continuous
 62
     3
370
     9
100
AcDbLine
 10
-533.1023870347663
 20
22.97042638736639
 30
0.0
 11
-533.1023870347663
 21
-66.0304858407797
 31
0.0
  0
LINE
  5
16B
330
1F
100
AcDbEntity
  8
A-2
  6
Continuous
 62
     3
370
     9
100
AcDbLine
 10
-575.4025711299944
 20
22.97042638736639
 30
0.0
 11
-575.4025711299944
 21
-66.0304858407797
 31
0.0
  0
LINE
  5
16C
330
1F
100
AcDbEntity
  8
A-2
  6
Continuous
 62
     3
370
     9
100
AcDbLine
 10
-568.4024985476465
 20
22.97042638736639
 30
0.0
 11
-568.4024985476465
 21
-66.0304858407797
 31
0.0
  0
LINE
  5
16D
330
1F
100
AcDbEntity
  8
A-2
  6
Continuous
 62
     3
370
     9
100
AcDbLine
 10
-610.7027568748213
 20
22.97042638736639
 30
0.0
 11
-610.7027568748213
 21
-66.0304858407797
 31
0.0
  0
LINE
  5
16E
330
1F
100
AcDbEntity
  8
A-2
  6
Continuous
 62
     3
370
     9
100
AcDbLine
 10
-603.70275852442
 20
22.97042638736639
 30
0.0
 11
-603.70275852442
 21
-66.0304858407797
 31
0.0
  0
LINE
  5
16F
330
1F
100
AcDbEntity
  8
A-2
  6
Continuous
 62
     3
370
     9
100
AcDbLine
 10
-646.0023487640738
 20
22.97042638736639
 30
0.0
 11
-646.0023487640738
 21
-66.0304858407797
 31
0.0
  0
LINE
  5
170
330
1F
100
AcDbEntity
  8
A-2
  6
Continuous
 62
     3
370
     9
100
AcDbLine
 10
-639.0024246456194
 20
22.97042638736639
 30
0.0
 11
-639.0024246456194
 21
-66.0304858407797
 31
0.0
  0
LINE
  5
171
330
1F
100
AcDbEntity
  8
A-2
  6
Continuous
 62
     3
370
     9
100
AcDbLine
 10
-681.3024602769538
 20
22.97042638736639
 30
0.0
 11
-681.3024602769538
 21
-66.0304858407797
 31
0.0
  0
LINE
  5
172
330
1F
100
AcDbEntity
  8
A-2
  6
Continuous
 62
     3
370
     9
100
AcDbLine
 10
-674.3025361584994
 20
22.97042638736639
 30
0.0
 11
-674.3025361584994
 21
-66.0304858407797
 31
0.0
  0
LINE
  5
173
330
1F
100
AcDbEntity
  8
A-2
  6
Continuous
 62
     3
370
     9
100
AcDbLine
 10
-716.6027202537275
 20
22.97042638736639
 30
0.0
 11
-716.6027202537275
 21
-66.0304858407797
 31
0.0
  0
LINE
  5
174
330
1F
100
AcDbEntity
  8
A-2
  6
Continuous
 62
     3
370
     9
100
AcDbLine
 10
-709.6027219033263
 20
22.97042638736639
 30
0.0
 11
-709.6027219033263
 21
-66.0304858407797
 31
0.0
  0
LINE
  5
175
330
1F
100
AcDbEntity
  8
A-2
  6
Continuous
 62
     3
370
     9
100
AcDbLine
 10
-744.5025747591117
 20
22.97042638736639
 30
0.0
 11
-709.6027219033263
 21
33.96996779889515
 31
0.0
  0
LINE
  5
176
330
1F
100
AcDbEntity
  8
A-2
  6
Continuous
 62
     3
370
     9
100
AcDbLine
 10
-709.2025374781784
 20
22.97042638736639
 30
0.0
 11
-674.3026103904463
 21
33.96996779889515
 31
0.0
  0
LINE
  5
177
330
1F
100
AcDbEntity
  8
A-2
  6
Continuous
 62
     3
370
     9
100
AcDbLine
 10
-673.9025744291921
 20
22.97042638736639
 30
0.0
 11
-639.0027958053533
 21
33.96996779889515
 31
0.0
  0
LINE
  5
178
330
1F
100
AcDbEntity
  8
A-2
  6
Continuous
 62
     3
370
     9
100
AcDbLine
 10
-638.6025371482588
 20
22.97042638736639
 30
0.0
 11
-603.70275852442
 21
33.96996779889515
 31
0.0
  0
LINE
  5
179
330
1F
100
AcDbEntity
  8
A-2
  6
Continuous
 62
     3
370
     9
100
AcDbLine
 10
-603.3024998673254
 20
22.97042638736639
 30
0.0
 11
-568.4027212434867
 21
33.96996779889515
 31
0.0
  0
LINE
  5
17A
330
1F
100
AcDbEntity
  8
A-2
  6
Continuous
 62
     3
370
     9
100
AcDbLine
 10
-568.002536818339
 20
22.97042638736639
 30
0.0
 11
-533.1027581945002
 21
33.96996779889515
 31
0.0
  0
LINE
  5
17B
330
1F
100
AcDbEntity
  8
A-2
  6
Continuous
 62
     3
370
     9
100
AcDbLine
 10
-532.7024995374056
 20
22.97042638736639
 30
0.0
 11
-497.8027209135669
 21
33.96996779889515
 31
0.0
  0
LINE
  5
17C
330
1F
100
AcDbEntity
  8
A-2
  6
Continuous
 62
     3
370
     9
100
AcDbLine
 10
-751.5030185011938
 20
31.88976595398373
 30
0.0
 11
-744.9026849523128
 21
33.96996779889515
 31
0.0
  0
LINE
  5
17D
330
1F
100
AcDbEntity
  8
A-2
  6
Continuous
 62
     3
370
     9
100
AcDbLine
 10
-751.5030185011938
 20
33.96996779889515
 30
0.0
 11
-462.5029805604208
 21
33.96996779889515
 31
0.0
  0
LINE
  5
17E
330
1F
100
AcDbEntity
  8
A-2
  6
Continuous
 62
     3
370
     9
100
AcDbLine
 10
-751.5030185011938
 20
22.97042638736639
 30
0.0
 11
-462.5029805604208
 21
22.97042638736639
 31
0.0
  0
LINE
  5
17F
330
1F
100
AcDbEntity
  8
A-2
  6
Continuous
 62
     3
370
     9
100
AcDbLine
 10
-498.2018660914597
 20
22.97042638736639
 30
0.0
 11
-463.3020874676209
 21
33.96996779889515
 31
0.0
  0
LINE
  5
180
330
1F
100
AcDbEntity
  8
A-1
  6
Continuous
 62
     2
370
     9
100
AcDbLine
 10
-768.5031735634825
 20
588.4699908932786
 30
0.0
 11
-768.5031735634825
 21
-131.5300833386683
 31
0.0
  0
LINE
  5
181
330
1F
100
AcDbEntity
  8
A-1
  6
Continuous
 62
     2
370
     9
100
AcDbLine
 10
-445.5031224259191
 20
588.4699908932786
 30
0.0
 11
-445.5031224259191
 21
-131.5300833386683
 31
0.0
  0
LINE
  5
182
330
1F
100
AcDbEntity
  8
A-1
  6
Continuous
 62
     2
370
     9
100
AcDbLine
 10
-768.5031735634825
 20
-131.5300833386683
 30
0.0
 11
-445.5031224259191
 21
-131.5300833386683
 31
0.0
  0
LINE
  5
183
330
1F
100
AcDbEntity
  8
A-2
  6
Continuous
 62
     3
370
     9
100
AcDbLine
 10
-462.5029805604208
 20
578.4700568772313
 30
0.0
 11
-462.5029805604208
 21
-121.5299266267806
 31
0.0
  0
LINE
  5
184
330
1F
100
AcDbEntity
  8
A-2
  6
Continuous
 62
     3
370
     9
100
AcDbLine
 10
-751.5030185011938
 20
-121.5299266267806
 30
0.0
 11
-751.5030185011938
 21
578.4700568772313
 31
0.0
  0
LINE
  5
185
330
1F
100
AcDbEntity
  8
A-2
  6
Continuous
 62
     3
370
     9
100
AcDbLine
 10
-462.5029805604208
 20
-121.5299266267806
 30
0.0
 11
-751.5030185011938
 21
-121.5299266267806
 31
0.0
  0
LINE
  5
186
330
1F
100
AcDbEntity
  8
A-1
  6
Continuous
 62
     2
370
     9
100
AcDbLine
 10
-762.50307953635
 20
582.4698226341992
 30
0.0
 11
-762.50307953635
 21
-125.5299150795888
 31
0.0
  0
LINE
  5
187
330
1F
100
AcDbEntity
  8
A-1
  6
Continuous
 62
     2
370
     9
100
AcDbLine
 10
-451.5032164530517
 20
582.4698226341992
 30
0.0
 11
-451.5032164530517
 21
-125.5299150795888
 31
0.0
  0
LINE
  5
188
330
1F
100
AcDbEntity
  8
A-9
  6
Continuous
 62
     4
370
     9
100
AcDbLine
 10
-737.5030960323381
 20
558.4700403812432
 30
0.0
 11
-723.5030993315359
 21
558.4700403812432
 31
0.0
  0
LINE
  5
189
330
1F
100
AcDbEntity
  8
A-9
  6
Continuous
 62
     4
370
     9
100
AcDbLine
 10
-740.2225834030096
 20
597.4303807264711
 30
0.0
 11
-720.7836119608642
 21
597.4303807264711
 31
0.0
  0
LINE
  5
18A
330
1F
100
AcDbEntity
  8
A-9
  6
Continuous
 62
     4
370
     9
100
AcDbLine
 10
-742.9420707736809
 20
596.3895003685742
 30
0.0
 11
-742.9420707736809
 21
588.4699908932786
 31
0.0
  0
LINE
  5
18B
330
1F
100
AcDbEntity
  8
A-9
  6
Continuous
 62
     4
370
     9
100
AcDbLine
 10
-742.9420707736809
 20
588.4699908932786
 30
0.0
 11
-718.0641245901928
 21
588.4699908932786
 31
0.0
  0
LINE
  5
18C
330
1F
100
AcDbEntity
  8
A-9
  6
Continuous
 62
     4
370
     9
100
AcDbLine
 10
-718.0641245901928
 20
596.3895003685742
 30
0.0
 11
-718.0641245901928
 21
588.4699908932786
 31
0.0
  0
LINE
  5
18D
330
1F
100
AcDbEntity
  8
A-9
  6
Continuous
 62
     4
370
     9
100
AcDbLine
 10
-737.5030218003913
 20
588.4699908932786
 30
0.0
 11
-737.5030218003913
 21
596.3895003685742
 31
0.0
  0
LINE
  5
18E
330
1F
100
AcDbEntity
  8
A-9
  6
Continuous
 62
     4
370
     9
100
AcDbLine
 10
-723.5029508676422
 20
588.4699908932786
 30
0.0
 11
-723.5029508676422
 21
596.3895003685742
 31
0.0
  0
LINE
  5
18F
330
1F
100
AcDbEntity
  8
A-9
  6
Continuous
 62
     4
370
     9
100
AcDbLine
 10
-737.5030960323381
 20
582.4698226341992
 30
0.0
 11
-737.5030960323381
 21
578.4700568772313
 31
0.0
  0
LINE
  5
190
330
1F
100
AcDbEntity
  8
A-9
  6
Continuous
 62
     4
370
     9
100
AcDbLine
 10
-723.5030993315359
 20
582.4698226341992
 30
0.0
 11
-723.5030993315359
 21
578.4700568772313
 31
0.0
  0
LINE
  5
191
330
1F
100
AcDbEntity
  8
A-9
  6
Continuous
 62
     4
370
     9
100
AcDbLine
 10
-723.5030993315359
 20
573.9701162627888
 30
0.0
 11
-723.5030993315359
 21
558.4700403812432
 31
0.0
  0
LINE
  5
192
330
1F
100
AcDbEntity
  8
A-9
  6
Continuous
 62
     4
370
     9
100
AcDbLine
 10
-737.5030960323381
 20
573.9701162627888
 30
0.0
 11
-737.5030960323381
 21
558.4700403812432
 31
0.0
  0
LINE
  5
193
330
1F
100
AcDbEntity
  8
A-2
  6
Continuous
 62
     3
370
     9
100
AcDbLine
 10
137.1558989000943
 20
528.4699414053141
 30
0.0
 11
131.4989791629745
 21
522.8131701320876
 31
0.0
  0
LINE
  5
194
330
1F
100
AcDbEntity
  8
A-2
  6
Continuous
 62
     3
370
     9
100
AcDbLine
 10
131.4989791629745
 20
522.8131701320876
 30
0.0
 11
125.8422078897481
 21
528.4699414053141
 31
0.0
  0
LINE
  5
195
330
1F
100
AcDbEntity
  8
A-2
  6
Continuous
 62
     3
370
     9
100
AcDbLine
 10
125.8422078897481
 20
528.4699414053141
 30
0.0
 11
131.4989791629745
 21
534.1268611424339
 31
0.0
  0
LINE
  5
196
330
1F
100
AcDbEntity
  8
A-2
  6
Continuous
 62
     3
370
     9
100
AcDbLine
 10
131.4989791629745
 20
534.1268611424339
 30
0.0
 11
137.1558989000943
 21
528.4699414053141
 31
0.0
  0
LINE
  5
197
330
1F
100
AcDbEntity
  8
A-2
  6
Continuous
 62
     3
370
     9
100
AcDbLine
 10
137.1558989000943
 20
428.4700073892667
 30
0.0
 11
131.4989791629745
 21
422.8132361160405
 31
0.0
  0
LINE
  5
198
330
1F
100
AcDbEntity
  8
A-2
  6
Continuous
 62
     3
370
     9
100
AcDbLine
 10
131.4989791629745
 20
422.8132361160405
 30
0.0
 11
125.8422078897481
 21
428.4700073892667
 31
0.0
  0
LINE
  5
199
330
1F
100
AcDbEntity
  8
A-2
  6
Continuous
 62
     3
370
     9
100
AcDbLine
 10
125.8422078897481
 20
428.4700073892667
 30
0.0
 11
131.4989791629745
 21
434.1269271263867
 31
0.0
  0
LINE
  5
19A
330
1F
100
AcDbEntity
  8
A-2
  6
Continuous
 62
     3
370
     9
100
AcDbLine
 10
131.4989791629745
 20
434.1269271263867
 30
0.0
 11
137.1558989000943
 21
428.4700073892667
 31
0.0
  0
LINE
  5
19B
330
1F
100
AcDbEntity
  8
A-2
  6
Continuous
 62
     3
370
     9
100
AcDbLine
 10
137.1558989000943
 20
328.469924909326
 30
0.0
 11
131.4989791629745
 21
322.8131536360995
 31
0.0
  0
LINE
  5
19C
330
1F
100
AcDbEntity
  8
A-2
  6
Continuous
 62
     3
370
     9
100
AcDbLine
 10
131.4989791629745
 20
322.8131536360995
 30
0.0
 11
125.8422078897481
 21
328.469924909326
 31
0.0
  0
LINE
  5
19D
330
1F
100
AcDbEntity
  8
A-2
  6
Continuous
 62
     3
370
     9
100
AcDbLine
 10
125.8422078897481
 20
328.469924909326
 30
0.0
 11
131.4989791629745
 21
334.1268446464458
 31
0.0
  0
LINE
  5
19E
330
1F
100
AcDbEntity
  8
A-2
  6
Continuous
 62
     3
370
     9
100
AcDbLine
 10
131.4989791629745
 20
334.1268446464458
 30
0.0
 11
137.1558989000943
 21
328.469924909326
 31
0.0
  0
LINE
  5
19F
330
1F
100
AcDbEntity
  8
A-2
  6
Continuous
 62
     3
370
     9
100
AcDbLine
 10
137.1558989000943
 20
-71.53047924238456
 30
0.0
 11
131.4989791629745
 21
-65.87370796915815
 31
0.0
  0
LINE
  5
1A0
330
1F
100
AcDbEntity
  8
A-2
  6
Continuous
 62
     3
370
     9
100
AcDbLine
 10
131.4989791629745
 20
-65.87370796915815
 30
0.0
 11
125.8422078897481
 21
-71.53047924238456
 31
0.0
  0
LINE
  5
1A1
330
1F
100
AcDbEntity
  8
A-2
  6
Continuous
 62
     3
370
     9
100
AcDbLine
 10
125.8422078897481
 20
-71.53047924238456
 30
0.0
 11
131.4989791629745
 21
-77.18747321145119
 31
0.0
  0
LINE
  5
1A2
330
1F
100
AcDbEntity
  8
A-2
  6
Continuous
 62
     3
370
     9
100
AcDbLine
 10
131.4989791629745
 20
-77.18747321145119
 30
0.0
 11
137.1558989000943
 21
-71.53047924238456
 31
0.0
  0
LINE
  5
1A3
330
1F
100
AcDbEntity
  8
A-2
  6
Continuous
 62
     3
370
     9
100
AcDbLine
 10
137.1558989000943
 20
28.4694547736628
 30
0.0
 11
131.4989791629745
 21
34.12622604688921
 31
0.0
  0
LINE
  5
1A4
330
1F
100
AcDbEntity
  8
A-2
  6
Continuous
 62
     3
370
     9
100
AcDbLine
 10
131.4989791629745
 20
34.12622604688921
 30
0.0
 11
125.8422078897481
 21
28.4694547736628
 31
0.0
  0
LINE
  5
1A5
330
1F
100
AcDbEntity
  8
A-2
  6
Continuous
 62
     3
370
     9
100
AcDbLine
 10
125.8422078897481
 20
28.4694547736628
 30
0.0
 11
131.4989791629745
 21
22.81253503654296
 31
0.0
  0
LINE
  5
1A6
330
1F
100
AcDbEntity
  8
A-2
  6
Continuous
 62
     3
370
     9
100
AcDbLine
 10
131.4989791629745
 20
22.81253503654296
 30
0.0
 11
137.1558989000943
 21
28.4694547736628
 31
0.0
  0
LINE
  5
1A7
330
1F
100
AcDbEntity
  8
A-2
  6
Continuous
 62
     3
370
     9
100
AcDbLine
 10
125.8422078897481
 20
578.4699084133376
 30
0.0
 11
125.8422078897481
 21
-121.5304462504081
 31
0.0
  0
LINE
  5
1A8
330
1F
100
AcDbEntity
  8
A-2
  6
Continuous
 62
     3
370
     9
100
AcDbLine
 10
187.3421880945623
 20
573.9699677988951
 30
0.0
 11
187.3421880945623
 21
-117.0304314040188
 31
0.0
  0
LINE
  5
1A9
330
1F
100
AcDbEntity
  8
A-2
  6
Continuous
 62
     3
370
     9
100
AcDbLine
 10
188.842118811412
 20
573.9699677988951
 30
0.0
 11
188.842118811412
 21
-117.0304314040188
 31
0.0
  0
LINE
  5
1AA
330
1F
100
AcDbEntity
  8
A-4
  6
Continuous
 62
     7
370
     9
100
AcDbLine
 10
316.8421946929574
 20
-131.5306029622958
 30
0.0
 11
316.8421946929574
 21
588.4699908932786
 31
0.0
  0
LINE
  5
1AB
330
1F
100
AcDbEntity
  8
A-4
  6
Continuous
 62
     7
370
     9
100
AcDbLine
 10
221.842227684934
 20
-71.53047924238456
 30
0.0
 11
318.6421709387346
 21
-71.53047924238456
 31
0.0
  0
LINE
  5
1AC
330
1F
100
AcDbEntity
  8
A-4
  6
Continuous
 62
     7
370
     9
100
AcDbLine
 10
221.842227684934
 20
528.4699414053141
 30
0.0
 11
318.6421709387346
 21
528.4699414053141
 31
0.0
  0
LINE
  5
1AD
330
1F
100
AcDbEntity
  8
A-4
  6
Continuous
 62
     7
370
     9
100
AcDbLine
 10
125.8422078897481
 20
-212.1306857721564
 30
0.0
 11
200.8421584017835
 21
-212.1306857721564
 31
0.0
  0
LINE
  5
1AE
330
1F
100
AcDbEntity
  8
A-4
  6
Continuous
 62
     7
370
     9
100
AcDbLine
 10
125.8422078897481
 20
-146.5305782183135
 30
0.0
 11
125.8422078897481
 21
-261.9307461474731
 31
0.0
  0
LINE
  5
1AF
330
1F
100
AcDbEntity
  8
A-4
  6
Continuous
 62
     7
370
     9
100
AcDbLine
 10
200.8421584017835
 20
-134.5306128598887
 30
0.0
 11
200.8421584017835
 21
-213.9307362498802
 31
0.0
  0
LINE
  5
1B0
330
1F
100
AcDbEntity
  8
A-4
  6
Continuous
 62
     7
370
     9
100
AcDbLine
 10
125.8422078897481
 20
-260.1306956697493
 30
0.0
 11
206.8421781969693
 21
-260.1306956697493
 31
0.0
  0
LINE
  5
1B1
330
1F
100
AcDbEntity
  8
A-4
  6
Continuous
 62
     7
370
     9
100
AcDbLine
 10
206.8421781969693
 20
-134.5306128598887
 30
0.0
 11
206.8421781969693
 21
-261.9307461474731
 31
0.0
  0
LINE
  5
1B2
330
1F
100
AcDbEntity
  8
A-9
  6
JWW_CENTER1
 62
     4
370
     9
100
AcDbLine
 10
143.8422672753056
 20
599.3647167959391
 30
0.0
 11
143.8422672753056
 21
553.0080537363951
 31
0.0
  0
LINE
  5
1B3
330
1F
100
AcDbEntity
  8
A-9
  6
Continuous
 62
     4
370
     9
100
AcDbLine
 10
133.8421847953646
 20
-159.5303736680602
 30
0.0
 11
153.8422012913528
 21
-159.5303736680602
 31
0.0
  0
LINE
  5
1B4
330
1F
100
AcDbEntity
  8
A-9
  6
Continuous
 62
     4
370
     9
100
AcDbLine
 10
133.8421847953646
 20
-131.5303060345086
 30
0.0
 11
133.8421847953646
 21
-159.5303736680602
 31
0.0
  0
LINE
  5
1B5
330
1F
100
AcDbEntity
  8
A-9
  6
Continuous
 62
     4
370
     9
100
AcDbLine
 10
153.8422012913528
 20
-131.5303060345086
 30
0.0
 11
153.8422012913528
 21
-159.5303736680602
 31
0.0
  0
LINE
  5
1B6
330
1F
100
AcDbEntity
  8
A-9
  6
JWW_CENTER1
 62
     4
370
     9
100
AcDbLine
 10
143.8422672753056
 20
-92.82688245712268
 30
0.0
 11
143.8422672753056
 21
-166.0221801107333
 31
0.0
  0
LINE
  5
1B7
330
1F
100
AcDbEntity
  8
A-9
  6
Continuous
 62
     4
370
     9
100
AcDbLine
 10
137.3422210865385
 20
-99.83304205910744
 30
0.0
 11
150.3421650001789
 21
-99.83304205910744
 31
0.0
  0
LINE
  5
1B8
330
1F
100
AcDbEntity
  8
A-9
  6
Continuous
 62
     4
370
     9
100
AcDbLine
 10
137.3422210865385
 20
-99.83304205910744
 30
0.0
 11
137.3422210865385
 21
-131.5303060345086
 31
0.0
  0
LINE
  5
1B9
330
1F
100
AcDbEntity
  8
A-9
  6
Continuous
 62
     4
370
     9
100
AcDbLine
 10
150.3421650001789
 20
-99.83304205910744
 30
0.0
 11
150.3421650001789
 21
-131.5303060345086
 31
0.0
  0
LINE
  5
1BA
330
1F
100
AcDbEntity
  8
A-2
  6
Continuous
 62
     3
370
     9
100
AcDbLine
 10
125.8422078897481
 20
-121.5304462504081
 30
0.0
 11
137.3422210865385
 21
-121.5304462504081
 31
0.0
  0
LINE
  5
1BB
330
1F
100
AcDbEntity
  8
A-2
  6
Continuous
 62
     3
370
     9
100
AcDbLine
 10
125.8422078897481
 20
-117.0304314040188
 30
0.0
 11
137.3422210865385
 21
-117.0304314040188
 31
0.0
  0
LINE
  5
1BC
330
1F
100
AcDbEntity
  8
A-2
  6
Continuous
 62
     3
370
     9
100
AcDbLine
 10
139.3421781969693
 20
558.4694465256688
 30
0.0
 11
139.3421781969693
 21
-99.83304205910744
 31
0.0
  0
LINE
  5
1BD
330
1F
100
AcDbEntity
  8
A-2
  6
Continuous
 62
     3
370
     9
100
AcDbLine
 10
137.1558989000943
 20
228.4699166613317
 30
0.0
 11
131.4989791629745
 21
222.8131453881055
 31
0.0
  0
LINE
  5
1BE
330
1F
100
AcDbEntity
  8
A-2
  6
Continuous
 62
     3
370
     9
100
AcDbLine
 10
131.4989791629745
 20
222.8131453881055
 30
0.0
 11
125.8422078897481
 21
228.4699166613317
 31
0.0
  0
LINE
  5
1BF
330
1F
100
AcDbEntity
  8
A-2
  6
Continuous
 62
     3
370
     9
100
AcDbLine
 10
125.8422078897481
 20
228.4699166613317
 30
0.0
 11
131.4989791629745
 21
234.1268363984517
 31
0.0
  0
LINE
  5
1C0
330
1F
100
AcDbEntity
  8
A-2
  6
Continuous
 62
     3
370
     9
100
AcDbLine
 10
131.4989791629745
 20
234.1268363984517
 30
0.0
 11
137.1558989000943
 21
228.4699166613317
 31
0.0
  0
LINE
  5
1C1
330
1F
100
AcDbEntity
  8
A-2
  6
Continuous
 62
     3
370
     9
100
AcDbLine
 10
137.1558989000943
 20
128.4699084133376
 30
0.0
 11
131.4989791629745
 21
122.8131371401112
 31
0.0
  0
LINE
  5
1C2
330
1F
100
AcDbEntity
  8
A-2
  6
Continuous
 62
     3
370
     9
100
AcDbLine
 10
131.4989791629745
 20
122.8131371401112
 30
0.0
 11
125.8422078897481
 21
128.4699084133376
 31
0.0
  0
LINE
  5
1C3
330
1F
100
AcDbEntity
  8
A-2
  6
Continuous
 62
     3
370
     9
100
AcDbLine
 10
125.8422078897481
 20
128.4699084133376
 30
0.0
 11
131.4989791629745
 21
134.1268281504576
 31
0.0
  0
LINE
  5
1C4
330
1F
100
AcDbEntity
  8
A-2
  6
Continuous
 62
     3
370
     9
100
AcDbLine
 10
131.4989791629745
 20
134.1268281504576
 30
0.0
 11
137.1558989000943
 21
128.4699084133376
 31
0.0
  0
LINE
  5
1C5
330
1F
100
AcDbEntity
  8
A-2
  6
JWW_CENTER1
 62
     3
370
     9
100
AcDbLine
 10
94.11591922315183
 20
228.4696939654914
 30
0.0
 11
221.5013545852718
 21
228.4696939654914
 31
0.0
  0
LINE
  5
1C6
330
1F
100
AcDbEntity
  8
A-9
  6
Continuous
 62
     4
370
     9
100
AcDbLine
 10
136.8421946929576
 20
558.4700403812432
 30
0.0
 11
150.8423398576535
 21
558.4700403812432
 31
0.0
  0
LINE
  5
1C7
330
1F
100
AcDbEntity
  8
A-9
  6
Continuous
 62
     4
370
     9
100
AcDbLine
 10
134.1227815542329
 20
597.4303807264711
 30
0.0
 11
153.5617529963781
 21
597.4303807264711
 31
0.0
  0
LINE
  5
1C8
330
1F
100
AcDbEntity
  8
A-9
  6
Continuous
 62
     4
370
     9
100
AcDbLine
 10
150.8423398576535
 20
588.4699908932786
 30
0.0
 11
150.8423398576535
 21
558.4700403812432
 31
0.0
  0
LINE
  5
1C9
330
1F
100
AcDbEntity
  8
A-9
  6
Continuous
 62
     4
370
     9
100
AcDbLine
 10
131.4033684155082
 20
596.3895003685742
 30
0.0
 11
131.4033684155082
 21
588.4699908932786
 31
0.0
  0
LINE
  5
1CA
330
1F
100
AcDbEntity
  8
A-9
  6
Continuous
 62
     4
370
     9
100
AcDbLine
 10
131.4033684155082
 20
588.4699908932786
 30
0.0
 11
156.2811661351028
 21
588.4699908932786
 31
0.0
  0
LINE
  5
1CB
330
1F
100
AcDbEntity
  8
A-9
  6
Continuous
 62
     4
370
     9
100
AcDbLine
 10
156.2811661351028
 20
596.3895003685742
 30
0.0
 11
156.2811661351028
 21
588.4699908932786
 31
0.0
  0
LINE
  5
1CC
330
1F
100
AcDbEntity
  8
A-9
  6
Continuous
 62
     4
370
     9
100
AcDbLine
 10
136.842343156851
 20
588.4699908932786
 30
0.0
 11
136.842343156851
 21
596.3895003685742
 31
0.0
  0
LINE
  5
1CD
330
1F
100
AcDbEntity
  8
A-9
  6
Continuous
 62
     4
370
     9
100
AcDbLine
 10
150.8423398576535
 20
588.4699908932786
 30
0.0
 11
150.8423398576535
 21
596.3895003685742
 31
0.0
  0
LINE
  5
1CE
330
1F
100
AcDbEntity
  8
A-2
  6
Continuous
 62
     3
370
     9
100
AcDbLine
 10
125.8422078897481
 20
578.4699084133376
 30
0.0
 11
136.8421946929576
 21
578.4699084133376
 31
0.0
  0
LINE
  5
1CF
330
1F
100
AcDbEntity
  8
A-2
  6
Continuous
 62
     3
370
     9
100
AcDbLine
 10
125.8422078897481
 20
573.9699677988951
 30
0.0
 11
136.8421946929576
 21
573.9699677988951
 31
0.0
  0
LINE
  5
1D0
330
1F
100
AcDbEntity
  8
A-2
  6
Continuous
 62
     3
370
     9
100
AcDbLine
 10
137.842099016226
 20
558.4700403812432
 30
0.0
 11
137.842099016226
 21
-99.83304205910744
 31
0.0
  0
LINE
  5
1D1
330
1F
100
AcDbEntity
  8
A-1
  6
Continuous
 62
     2
370
     9
100
AcDbLine
 10
206.8421781969693
 20
588.4699908932786
 30
0.0
 11
125.8422078897481
 21
588.4699908932786
 31
0.0
  0
LINE
  5
1D2
330
1F
100
AcDbEntity
  8
A-1
  6
Continuous
 62
     2
370
     9
100
AcDbLine
 10
176.8422276849338
 20
588.4699908932786
 30
0.0
 11
176.8422276849338
 21
597.470169049951
 31
0.0
  0
LINE
  5
1D3
330
1F
100
AcDbEntity
  8
A-1
  6
Continuous
 62
     2
370
     9
100
AcDbLine
 10
190.6573868382278
 20
597.470169049951
 30
0.0
 11
176.8422276849338
 21
597.470169049951
 31
0.0
  0
LINE
  5
1D4
330
1F
100
AcDbEntity
  8
A-1
  6
Continuous
 62
     2
370
     9
100
AcDbLine
 10
195.3160353549085
 20
589.0834437015557
 30
0.0
 11
253.506903835694
 21
604.6755671971214
 31
0.0
  0
LINE
  5
1D5
330
1F
100
AcDbEntity
  8
A-1
  6
Continuous
 62
     2
370
     9
100
AcDbLine
 10
192.9867853285149
 20
597.7765985263022
 30
0.0
 11
251.1775053454068
 21
613.3688704857617
 31
0.0
  0
LINE
  5
1D6
330
1F
100
AcDbEntity
  8
A-1
  6
JWW_CENTER2
 62
     2
370
     9
100
AcDbLine
 10
190.6572383743342
 20
592.9700799716147
 30
0.0
 11
173.0372465563443
 21
592.9700799716147
 31
0.0
  0
LINE
  5
1D7
330
1F
100
AcDbEntity
  8
A-1
  6
JWW_CENTER2
 62
     2
370
     9
100
AcDbLine
 10
194.1513361097649
 20
593.4300211139289
 30
0.0
 11
259.3179290943512
 21
610.8913050296807
 31
0.0
  0
LINE
  5
1D8
330
1F
100
AcDbEntity
  8
A-1
  6
Continuous
 62
     2
370
     9
100
AcDbLine
 10
206.8421781969693
 20
588.4699908932786
 30
0.0
 11
206.8421781969693
 21
528.4700898692076
 31
0.0
  0
LINE
  5
1D9
330
1F
100
AcDbEntity
  8
A-1
  6
Continuous
 62
     2
370
     9
100
AcDbLine
 10
125.8422078897481
 20
585.4701294595792
 30
0.0
 11
125.8422078897481
 21
588.4699908932786
 31
0.0
  0
LINE
  5
1DA
330
1F
100
AcDbEntity
  8
A-1
  6
Continuous
 62
     2
370
     9
100
AcDbLine
 10
203.8421682993765
 20
528.4700898692076
 30
0.0
 11
206.8421781969693
 21
528.4700898692076
 31
0.0
  0
LINE
  5
1DB
330
1F
100
AcDbEntity
  8
A-1
  6
Continuous
 62
     2
370
     9
100
AcDbLine
 10
200.8421584017835
 20
531.4700997668004
 30
0.0
 11
200.8421584017835
 21
577.4700040900691
 31
0.0
  0
LINE
  5
1DC
330
1F
100
AcDbEntity
  8
A-9
  6
Continuous
 62
     4
370
     9
100
AcDbLine
 10
136.8421946929576
 20
588.4699908932786
 30
0.0
 11
136.8421946929576
 21
558.4700403812432
 31
0.0
  0
LINE
  5
1DD
330
1F
100
AcDbEntity
  8
A-1
  6
Continuous
 62
     2
370
     9
100
AcDbLine
 10
128.842217787341
 20
582.4699710980929
 30
0.0
 11
136.8421946929576
 21
582.4699710980929
 31
0.0
  0
LINE
  5
1DE
330
1F
100
AcDbEntity
  8
A-1
  6
Continuous
 62
     2
370
     9
100
AcDbLine
 10
150.8423398576535
 20
582.4699710980929
 30
0.0
 11
195.8421913937599
 21
582.4699710980929
 31
0.0
  0
LINE
  5
1DF
330
1F
100
AcDbEntity
  8
A-1
  6
Continuous
 62
     2
370
     9
100
AcDbLine
 10
206.8421781969693
 20
-131.5300091067215
 30
0.0
 11
125.8422078897481
 21
-131.5300091067215
 31
0.0
  0
LINE
  5
1E0
330
1F
100
AcDbEntity
  8
A-1
  6
Continuous
 62
     2
370
     9
100
AcDbLine
 10
176.8422276849338
 20
-131.5300091067215
 30
0.0
 11
176.8422276849338
 21
-140.5301872633938
 31
0.0
  0
LINE
  5
1E1
330
1F
100
AcDbEntity
  8
A-1
  6
Continuous
 62
     2
370
     9
100
AcDbLine
 10
190.6573868382278
 20
-140.5301872633938
 30
0.0
 11
176.8422276849338
 21
-140.5301872633938
 31
0.0
  0
LINE
  5
1E2
330
1F
100
AcDbEntity
  8
A-1
  6
Continuous
 62
     2
370
     9
100
AcDbLine
 10
195.3160353549085
 20
-132.1434619149985
 30
0.0
 11
253.506903835694
 21
-147.7355854105644
 31
0.0
  0
LINE
  5
1E3
330
1F
100
AcDbEntity
  8
A-1
  6
Continuous
 62
     2
370
     9
100
AcDbLine
 10
192.9867853285149
 20
-140.8366167397451
 30
0.0
 11
251.1775053454068
 21
-156.4288886992045
 31
0.0
  0
LINE
  5
1E4
330
1F
100
AcDbEntity
  8
A-1
  6
JWW_CENTER2
 62
     2
370
     9
100
AcDbLine
 10
190.6572383743342
 20
-136.0300981850576
 30
0.0
 11
173.0372465563443
 21
-136.0300981850576
 31
0.0
  0
LINE
  5
1E5
330
1F
100
AcDbEntity
  8
A-1
  6
JWW_CENTER2
 62
     2
370
     9
100
AcDbLine
 10
194.1513361097649
 20
-136.4900393273718
 30
0.0
 11
259.3179290943512
 21
-153.9513232431235
 31
0.0
  0
LINE
  5
1E6
330
1F
100
AcDbEntity
  8
A-1
  6
Continuous
 62
     2
370
     9
100
AcDbLine
 10
206.8421781969693
 20
-131.5300091067215
 30
0.0
 11
206.8421781969693
 21
-71.53010808265049
 31
0.0
  0
LINE
  5
1E7
330
1F
100
AcDbEntity
  8
A-1
  6
Continuous
 62
     2
370
     9
100
AcDbLine
 10
125.8422078897481
 20
-128.5301476730221
 30
0.0
 11
125.8422078897481
 21
-131.5300091067215
 31
0.0
  0
LINE
  5
1E8
330
1F
100
AcDbEntity
  8
A-1
  6
Continuous
 62
     2
370
     9
100
AcDbLine
 10
203.8421682993765
 20
-71.53010808265049
 30
0.0
 11
206.8421781969693
 21
-71.53010808265049
 31
0.0
  0
LINE
  5
1E9
330
1F
100
AcDbEntity
  8
A-1
  6
Continuous
 62
     2
370
     9
100
AcDbLine
 10
200.8421584017835
 20
-74.53011798024346
 30
0.0
 11
200.8421584017835
 21
-120.5300223035121
 31
0.0
  0
LINE
  5
1EA
330
1F
100
AcDbEntity
  8
A-1
  6
Continuous
 62
     2
370
     9
100
AcDbLine
 10
128.842217787341
 20
-125.5299893115356
 30
0.0
 11
137.3422210865385
 21
-125.5299893115356
 31
0.0
  0
LINE
  5
1EB
330
1F
100
AcDbEntity
  8
A-1
  6
Continuous
 62
     2
370
     9
100
AcDbLine
 10
150.3421650001789
 20
-125.5299893115356
 30
0.0
 11
195.8421913937599
 21
-125.5299893115356
 31
0.0
  0
LINE
  5
1EC
330
1F
100
AcDbEntity
  8
A-2
  6
Continuous
 62
     3
370
     9
100
AcDbLine
 10
150.8423398576535
 20
578.4699084133376
 30
0.0
 11
190.8422243857362
 21
578.4699084133376
 31
0.0
  0
LINE
  5
1ED
330
1F
100
AcDbEntity
  8
A-2
  6
Continuous
 62
     3
370
     9
100
AcDbLine
 10
150.8423398576535
 20
573.9699677988951
 30
0.0
 11
200.8421584017835
 21
573.9699677988951
 31
0.0
  0
LINE
  5
1EE
330
1F
100
AcDbEntity
  8
A-2
  6
Continuous
 62
     3
370
     9
100
AcDbLine
 10
190.8422243857362
 20
578.4699084133376
 30
0.0
 11
190.8422243857362
 21
573.9699677988951
 31
0.0
  0
LINE
  5
1EF
330
1F
100
AcDbEntity
  8
A-4
  6
Continuous
 62
     7
370
     9
100
AcDbLine
 10
221.842227684934
 20
-131.5306029622958
 30
0.0
 11
318.6421709387346
 21
-131.5306029622958
 31
0.0
  0
LINE
  5
1F0
330
1F
100
AcDbEntity
  8
A-4
  6
Continuous
 62
     7
370
     9
100
AcDbLine
 10
221.842227684934
 20
588.4699908932786
 30
0.0
 11
318.6421709387346
 21
588.4699908932786
 31
0.0
  0
LINE
  5
1F1
330
1F
100
AcDbEntity
  8
A-2
  6
Continuous
 62
     3
370
     9
100
AcDbLine
 10
150.3421650001789
 20
-121.5304462504081
 30
0.0
 11
190.8422243857362
 21
-121.5304462504081
 31
0.0
  0
LINE
  5
1F2
330
1F
100
AcDbEntity
  8
A-2
  6
Continuous
 62
     3
370
     9
100
AcDbLine
 10
190.8422243857362
 20
-121.5304462504081
 30
0.0
 11
190.8422243857362
 21
-117.0305798679124
 31
0.0
  0
LINE
  5
1F3
330
1F
100
AcDbEntity
  8
A-2
  6
Continuous
 62
     3
370
     9
100
AcDbLine
 10
150.3421650001789
 20
-117.0304314040188
 30
0.0
 11
200.8421584017835
 21
-117.0304314040188
 31
0.0
  0
LINE
  5
1F4
330
1F
100
AcDbEntity
  8
A-2
  6
Continuous
 62
     3
370
     9
100
AcDbLine
 10
200.8421584017835
 20
573.9699677988951
 30
0.0
 11
200.8421584017835
 21
-117.0304314040188
 31
0.0
  0
LINE
  5
1F5
330
1F
100
AcDbEntity
  8
A-4
  6
Continuous
 62
     7
370
     9
100
AcDbLine
 10
110.8421584017835
 20
-125.5304347032164
 30
0.0
 11
45.95052054810948
 21
-125.5304347032164
 31
0.0
  0
LINE
  5
1F6
330
1F
100
AcDbEntity
  8
A-4
  6
Continuous
 62
     7
370
     9
100
AcDbLine
 10
110.8421584017835
 20
-121.5304462504081
 30
0.0
 11
45.95052054810948
 21
-121.5304462504081
 31
0.0
  0
LINE
  5
1F7
330
1F
100
AcDbEntity
  8
A-4
  6
Continuous
 62
     7
370
     9
100
AcDbLine
 10
110.8421584017835
 20
578.4699084133376
 30
0.0
 11
45.95052054810948
 21
578.4699084133376
 31
0.0
  0
LINE
  5
1F8
330
1F
100
AcDbEntity
  8
A-4
  6
Continuous
 62
     7
370
     9
100
AcDbLine
 10
110.8421584017835
 20
582.4699710980929
 30
0.0
 11
45.95052054810948
 21
582.4699710980929
 31
0.0
  0
LINE
  5
1F9
330
1F
100
AcDbEntity
  8
A-4
  6
Continuous
 62
     7
370
     9
100
AcDbLine
 10
110.8421584017835
 20
-131.5306029622958
 30
0.0
 11
-14.19977440015894
 21
-131.5306029622958
 31
0.0
  0
LINE
  5
1FA
330
1F
100
AcDbEntity
  8
A-4
  6
Continuous
 62
     7
370
     9
100
AcDbLine
 10
110.8421584017835
 20
588.4699908932786
 30
0.0
 11
-14.19977440015894
 21
588.4699908932786
 31
0.0
  0
LINE
  5
1FB
330
1F
100
AcDbEntity
  8
A-4
  6
Continuous
 62
     7
370
     9
100
AcDbLine
 10
-12.39979815438191
 20
-131.5306029622958
 30
0.0
 11
-12.39979815438191
 21
588.4699908932786
 31
0.0
  0
LINE
  5
1FC
330
1F
100
AcDbEntity
  8
A-4
  6
Continuous
 62
     7
370
     9
100
AcDbLine
 10
47.75049679388651
 20
-159.8636008772029
 30
0.0
 11
47.75049679388651
 21
616.4285628685742
 31
0.0
  0
CIRCLE
  5
1FD
330
1F
100
AcDbEntity
  8
A-1
  6
Continuous
 62
     2
370
     9
100
AcDbCircle
 10
-657.503178512279
 20
-136.0303951128448
 30
0.0
 40
4.500000637930793
  0
CIRCLE
  5
1FE
330
1F
100
AcDbEntity
  8
A-1
  6
Continuous
 62
     2
370
     9
100
AcDbCircle
 10
-556.5031917090696
 20
-136.0303951128448
 30
0.0
 40
4.500000637930793
  0
ARC
  5
1FF
330
1F
100
AcDbEntity
  8
A-1
  6
Continuous
 62
     2
370
     9
100
AcDbCircle
 10
-652.0031108787275
 20
-142.1307765000914
 30
0.0
 40
10.00000012887491
100
AcDbArc
 50
180.0
 51
270.0
  0
ARC
  5
200
330
1F
100
AcDbEntity
  8
A-1
  6
Continuous
 62
     2
370
     9
100
AcDbCircle
 10
-562.0031851106742
 20
-142.1307765000914
 30
0.0
 40
10.00000012887491
100
AcDbArc
 50
270.0
 51
0.0
  0
ARC
  5
201
330
1F
100
AcDbEntity
  8
A-1
  6
Continuous
 62
     2
370
     9
100
AcDbCircle
 10
-562.0030366467806
 20
-142.1307765000914
 30
0.0
 40
1.000000012887491
100
AcDbArc
 50
270.0
 51
0.0
  0
ARC
  5
202
330
1F
100
AcDbEntity
  8
A-1
  6
Continuous
 62
     2
370
     9
100
AcDbCircle
 10
-652.0031108787275
 20
-142.1307765000914
 30
0.0
 40
1.000000012887491
100
AcDbArc
 50
180.0
 51
270.0
  0
CIRCLE
  5
203
330
1F
100
AcDbEntity
  8
A-1
  6
Continuous
 62
     2
370
     9
100
AcDbCircle
 10
-657.503178512279
 20
592.9700799716147
 30
0.0
 40
4.500000637930793
  0
CIRCLE
  5
204
330
1F
100
AcDbEntity
  8
A-1
  6
Continuous
 62
     2
370
     9
100
AcDbCircle
 10
-556.5031917090696
 20
592.9700799716147
 30
0.0
 40
4.500000637930793
  0
ARC
  5
205
330
1F
100
AcDbEntity
  8
A-1
  6
Continuous
 62
     2
370
     9
100
AcDbCircle
 10
-652.0031108787275
 20
599.0701644310742
 30
0.0
 40
10.00000012887491
100
AcDbArc
 50
90.0
 51
180.0
  0
ARC
  5
206
330
1F
100
AcDbEntity
  8
A-1
  6
Continuous
 62
     2
370
     9
100
AcDbCircle
 10
-562.0031851106742
 20
599.0701644310742
 30
0.0
 40
10.00000012887491
100
AcDbArc
 50
0.0
 51
90.0
  0
ARC
  5
207
330
1F
100
AcDbEntity
  8
A-1
  6
Continuous
 62
     2
370
     9
100
AcDbCircle
 10
-562.0030366467806
 20
599.0701644310742
 30
0.0
 40
1.000000012887491
100
AcDbArc
 50
0.0
 51
90.0
  0
ARC
  5
208
330
1F
100
AcDbEntity
  8
A-1
  6
Continuous
 62
     2
370
     9
100
AcDbCircle
 10
-652.0031108787275
 20
599.0701644310742
 30
0.0
 40
1.000000012887491
100
AcDbArc
 50
90.0
 51
180.0
  0
ARC
  5
209
330
1F
100
AcDbEntity
  8
A-9
  6
Continuous
 62
     4
370
     9
100
AcDbCircle
 10
-720.7836119608642
 20
593.3563830227126
 30
0.0
 40
4.074000313475326
100
AcDbArc
 50
48.12370300292969
 51
131.8761138916015
  0
ARC
  5
20A
330
1F
100
AcDbEntity
  8
A-9
  6
Continuous
 62
     4
370
     9
100
AcDbCircle
 10
-740.2225834030096
 20
593.3563830227126
 30
0.0
 40
4.074000313475326
100
AcDbArc
 50
48.12388610839845
 51
131.8762969970703
  0
ARC
  5
20B
330
1F
100
AcDbEntity
  8
A-9
  6
Continuous
 62
     4
370
     9
100
AcDbCircle
 10
-730.5030976819369
 20
573.3639381852972
 30
0.0
 40
24.06618504910856
100
AcDbArc
 50
73.09028625488283
 51
106.9097137451172
  0
ARC
  5
20C
330
1F
100
AcDbEntity
  8
A-9
  6
Continuous
 62
     4
370
     9
100
AcDbCircle
 10
153.5617529963781
 20
593.3563830227126
 30
0.0
 40
4.074000313475326
100
AcDbArc
 50
48.12370300292969
 51
131.8761138916015
  0
ARC
  5
20D
330
1F
100
AcDbEntity
  8
A-9
  6
Continuous
 62
     4
370
     9
100
AcDbCircle
 10
134.1227815542329
 20
593.3563830227126
 30
0.0
 40
4.074000313475326
100
AcDbArc
 50
48.12388610839845
 51
131.8762969970703
  0
ARC
  5
20E
330
1F
100
AcDbEntity
  8
A-9
  6
Continuous
 62
     4
370
     9
100
AcDbCircle
 10
143.8422672753056
 20
573.3639381852972
 30
0.0
 40
24.06618504910856
100
AcDbArc
 50
73.09028625488283
 51
106.9097137451172
  0
ARC
  5
20F
330
1F
100
AcDbEntity
  8
A-1
  6
Continuous
 62
     2
370
     9
100
AcDbCircle
 10
190.6572383743342
 20
606.4701987427295
 30
0.0
 40
18.00000023197483
100
AcDbArc
 50
270.0
 51
285.0
  0
ARC
  5
210
330
1F
100
AcDbEntity
  8
A-1
  6
Continuous
 62
     2
370
     9
100
AcDbCircle
 10
252.3422045905506
 20
609.0221446094948
 30
0.0
 40
4.500000057993709
100
AcDbArc
 50
285.0001373291016
 51
104.9999084472657
  0
ARC
  5
211
330
1F
100
AcDbEntity
  8
A-1
  6
JWW_CENTER2
 62
     2
370
     9
100
AcDbCircle
 10
190.6572383743342
 20
606.470050278836
 30
0.0
 40
13.50000162382384
100
AcDbArc
 50
270.0
 51
284.9999542236328
  0
ARC
  5
212
330
1F
100
AcDbEntity
  8
A-1
  6
Continuous
 62
     2
370
     9
100
AcDbCircle
 10
190.6573868382278
 20
606.4701987427295
 30
0.0
 40
9.000000115987417
100
AcDbArc
 50
270.0
 51
285.0000152587891
  0
ARC
  5
213
330
1F
100
AcDbEntity
  8
A-1
  6
Continuous
 62
     2
370
     9
100
AcDbCircle
 10
195.8421913937599
 20
577.4700040900691
 30
0.0
 40
5.000000064437454
100
AcDbArc
 50
0.0
 51
90.0
  0
ARC
  5
214
330
1F
100
AcDbEntity
  8
A-1
  6
Continuous
 62
     2
370
     9
100
AcDbCircle
 10
128.842217787341
 20
585.4701294595792
 30
0.0
 40
3.000000038662472
100
AcDbArc
 50
180.0
 51
270.0
  0
ARC
  5
215
330
1F
100
AcDbEntity
  8
A-1
  6
Continuous
 62
     2
370
     9
100
AcDbCircle
 10
203.8421682993765
 20
531.4700997668004
 30
0.0
 40
3.000000038662472
100
AcDbArc
 50
180.0
 51
270.0
  0
ARC
  5
216
330
1F
100
AcDbEntity
  8
A-1
  6
Continuous
 62
     2
370
     9
100
AcDbCircle
 10
190.6572383743342
 20
-149.5302169561725
 30
0.0
 40
18.00000023197483
100
AcDbArc
 50
74.99998474121094
 51
89.99998474121094
  0
ARC
  5
217
330
1F
100
AcDbEntity
  8
A-1
  6
Continuous
 62
     2
370
     9
100
AcDbCircle
 10
252.3422045905506
 20
-152.0821628229377
 30
0.0
 40
4.500000057993709
100
AcDbArc
 50
255.0000762939453
 51
74.99986267089842
  0
ARC
  5
218
330
1F
100
AcDbEntity
  8
A-1
  6
JWW_CENTER2
 62
     2
370
     9
100
AcDbCircle
 10
190.6572383743342
 20
-149.5300684922789
 30
0.0
 40
13.50000162382384
100
AcDbArc
 50
75.00004577636717
 51
90.0
  0
ARC
  5
219
330
1F
100
AcDbEntity
  8
A-1
  6
Continuous
 62
     2
370
     9
100
AcDbCircle
 10
190.6573868382278
 20
-149.5302169561725
 30
0.0
 40
9.000000115987417
100
AcDbArc
 50
74.99998474121094
 51
90.00000000000001
  0
ARC
  5
21A
330
1F
100
AcDbEntity
  8
A-1
  6
Continuous
 62
     2
370
     9
100
AcDbCircle
 10
195.8421913937599
 20
-120.5300223035121
 30
0.0
 40
5.000000064437454
100
AcDbArc
 50
270.0
 51
0.0
  0
ARC
  5
21B
330
1F
100
AcDbEntity
  8
A-1
  6
Continuous
 62
     2
370
     9
100
AcDbCircle
 10
128.842217787341
 20
-128.5301476730221
 30
0.0
 40
3.000000038662472
100
AcDbArc
 50
90.0
 51
180.0
  0
ARC
  5
21C
330
1F
100
AcDbEntity
  8
A-1
  6
Continuous
 62
     2
370
     9
100
AcDbCircle
 10
203.8421682993765
 20
-74.53011798024346
 30
0.0
 40
3.000000038662472
100
AcDbArc
 50
90.0
 51
180.0
  0
TEXT
  5
21D
330
1F
100
AcDbEntity
  8
A-4
  6
Continuous
 62
     2
370
     9
100
AcDbText
 10
-721.70259109014
 20
624.4431517093682
 30
0.0
 40
18.288
  1
35.3
 41
1.09375
  7
ＭＳ ゴシック
100
AcDbText
  0
TEXT
  5
21E
330
1F
100
AcDbEntity
  8
A-4
  6
Continuous
 62
     2
370
     9
100
AcDbText
 10
-626.5031851106742
 20
-321.1940553218819
 30
0.0
 40
18.288
  1
323
 41
1.083333333333333
  7
ＭＳ ゴシック
100
AcDbText
  0
TEXT
  5
21F
330
1F
100
AcDbEntity
  8
A-4
  6
Continuous
 62
     2
370
     9
100
AcDbText
 10
-795.6502406592649
 20
-267.4269654781319
 30
0.0
 40
18.288
  1
6
  7
ＭＳ ゴシック
100
AcDbText
  0
TEXT
  5
220
330
1F
100
AcDbEntity
  8
A-4
  6
Continuous
 62
     2
370
     9
100
AcDbText
 10
-626.5031851106742
 20
-267.4269654781319
 30
0.0
 40
18.288
  1
311
 41
1.083333333333333
  7
ＭＳ ゴシック
100
AcDbText
  0
TEXT
  5
221
330
1F
100
AcDbEntity
  8
A-4
  6
Continuous
 62
     2
370
     9
100
AcDbText
 10
-434.2509127883031
 20
-267.4269654781319
 30
0.0
 40
18.288
  1
6
  7
ＭＳ ゴシック
100
AcDbText
  0
TEXT
  5
222
330
1F
100
AcDbEntity
  8
A-4
  6
Continuous
 62
     2
370
     9
100
AcDbText
 10
-743.1565961511092
 20
-215.7823896889638
 30
0.0
 40
18.288
  1
11
 41
1.0625
  7
ＭＳ ゴシック
100
AcDbText
  0
TEXT
  5
223
330
1F
100
AcDbEntity
  8
A-4
  6
Continuous
 62
     2
370
     9
100
AcDbText
 10
-626.5030366467806
 20
-215.7823896889638
 30
0.0
 40
18.288
  1
289
 41
1.083333333333333
  7
ＭＳ ゴシック
100
AcDbText
  0
TEXT
  5
224
330
1F
100
AcDbEntity
  8
A-4
  6
Continuous
 62
     2
370
     9
100
AcDbText
 10
-493.1044275885036
 20
-215.7823896889638
 30
0.0
 40
18.288
  1
11
 41
1.0625
  7
ＭＳ ゴシック
100
AcDbText
  0
TEXT
  5
225
330
1F
100
AcDbEntity
  8
A-4
  6
Continuous
 62
     2
370
     9
100
AcDbText
 10
-720.7531793370784
 20
672.0982799821722
 30
0.0
 40
18.288
  1
161.5
 41
1.1
  7
ＭＳ ゴシック
100
AcDbText
  0
TEXT
  5
226
330
1F
100
AcDbEntity
  8
A-4
  6
Continuous
 62
     2
370
     9
100
AcDbText
 10
307.4581748977718
 20
-114.28042975442
 30
0.0
 40
18.288
  1
60
 50
90.0
 41
1.0625
  7
ＭＳ ゴシック
100
AcDbText
  0
TEXT
  5
227
330
1F
100
AcDbEntity
  8
A-4
  6
Continuous
 62
     2
370
     9
100
AcDbText
 10
307.4581748977718
 20
545.7199661492964
 30
0.0
 40
18.288
  1
60
 50
90.0
 41
1.0625
  7
ＭＳ ゴシック
100
AcDbText
  0
TEXT
  5
228
330
1F
100
AcDbEntity
  8
A-4
  6
Continuous
 62
     2
370
     9
100
AcDbText
 10
150.5921831457658
 20
-202.7468144408642
 30
0.0
 40
18.288
  1
75
 41
1.0625
  7
ＭＳ ゴシック
100
AcDbText
  0
TEXT
  5
229
330
1F
100
AcDbEntity
  8
A-4
  6
Continuous
 62
     2
370
     9
100
AcDbText
 10
153.5921930433587
 20
-250.7468243384571
 30
0.0
 40
18.288
  1
81
 41
1.0625
  7
ＭＳ ゴシック
100
AcDbText
  0
TEXT
  5
22A
330
1F
100
AcDbEntity
  8
A-4
  6
Continuous
 62
     2
370
     9
100
AcDbText
 10
307.4581748977718
 20
208.9696939654914
 30
0.0
 40
18.288
  1
600
 50
90.0
 41
1.083333333333333
  7
ＭＳ ゴシック
100
AcDbText
  0
TEXT
  5
22B
330
1F
100
AcDbEntity
  8
A-4
  6
Continuous
 62
     2
370
     9
100
AcDbText
 10
38.36647699870073
 20
-156.2735385553596
 30
0.0
 40
18.288
  1
6
 50
90.0
  7
ＭＳ ゴシック
100
AcDbText
  0
TEXT
  5
22C
330
1F
100
AcDbEntity
  8
A-4
  6
Continuous
 62
     2
370
     9
100
AcDbText
 10
38.36647699870073
 20
-110.7206590156636
 30
0.0
 40
18.288
  1
4
 50
90.0
  7
ＭＳ ゴシック
100
AcDbText
  0
TEXT
  5
22D
330
1F
100
AcDbEntity
  8
A-4
  6
Continuous
 62
     2
370
     9
100
AcDbText
 10
38.36647699870073
 20
557.556413375331
 30
0.0
 40
18.288
  1
4
 50
90.0
  7
ＭＳ ゴシック
100
AcDbText
  0
TEXT
  5
22E
330
1F
100
AcDbEntity
  8
A-4
  6
Continuous
 62
     2
370
     9
100
AcDbText
 10
38.36647699870073
 20
600.8894607782026
 30
0.0
 40
18.288
  1
6
 50
90.0
  7
ＭＳ ゴシック
100
AcDbText
  0
TEXT
  5
22F
330
1F
100
AcDbEntity
  8
A-4
  6
Continuous
 62
     2
370
     9
100
AcDbText
 10
38.36647699870073
 20
208.9696939654914
 30
0.0
 40
18.288
  1
700
 50
90.0
 41
1.083333333333333
  7
ＭＳ ゴシック
100
AcDbText
  0
TEXT
  5
230
330
1F
100
AcDbEntity
  8
A-4
  6
Continuous
 62
     2
370
     9
100
AcDbText
 10
-21.78381794956786
 20
208.9696939654914
 30
0.0
 40
18.288
  1
720
 50
90.0
 41
1.083333333333333
  7
ＭＳ ゴシック
100
AcDbText
  0
LWPOLYLINE
  5
231
330
1F
100
AcDbEntity
  8
A-4
  6
Continuous
 62
     7
370
     9
100
AcDbPolyline
 90
        4
 70
     1
 43
1.2
 10
-712.5027581945003
 20
617.4591992178141
 42
0.4142135623731
 10
-713.1027581945003
 20
618.059199217814
 42
0.4142135623731
 10
-713.7027581945003
 20
617.4591992178141
 42
0.4142135623731
 10
-713.1027581945003
 20
616.8591992178141
 42
0.4142135623731
  0
LWPOLYLINE
  5
232
330
1F
100
AcDbEntity
  8
A-4
  6
Continuous
 62
     7
370
     9
100
AcDbPolyline
 90
        4
 70
     1
 43
1.2
 10
-677.2024982177265
 20
617.4591992178141
 42
0.4142135623731
 10
-677.8024982177266
 20
618.059199217814
 42
0.4142135623731
 10
-678.4024982177266
 20
617.4591992178141
 42
0.4142135623731
 10
-677.8024982177266
 20
616.8591992178141
 42
0.4142135623731
  0
LWPOLYLINE
  5
233
330
1F
100
AcDbEntity
  8
A-4
  6
Continuous
 62
     7
370
     9
100
AcDbPolyline
 90
        4
 70
     1
 43
1.2
 10
-767.9031735634826
 20
665.1143274906182
 42
0.4142135623731
 10
-768.5031735634825
 20
665.7143274906181
 42
0.4142135623731
 10
-769.1031735634824
 20
665.1143274906182
 42
0.4142135623731
 10
-768.5031735634825
 20
664.5143274906181
 42
0.4142135623731
  0
LWPOLYLINE
  5
234
330
1F
100
AcDbEntity
  8
A-4
  6
Continuous
 62
     7
370
     9
100
AcDbPolyline
 90
        4
 70
     1
 43
1.2
 10
-606.4031851106743
 20
665.1143274906182
 42
0.4142135623731
 10
-607.0031851106742
 20
665.7143274906181
 42
0.4142135623731
 10
-607.6031851106742
 20
665.1143274906182
 42
0.4142135623731
 10
-607.0031851106742
 20
664.5143274906181
 42
0.4142135623731
  0
LWPOLYLINE
  5
235
330
1F
100
AcDbEntity
  8
A-4
  6
Continuous
 62
     7
370
     9
100
AcDbPolyline
 90
        4
 70
     1
 43
1.2
 10
-444.9031224259191
 20
665.1143274906182
 42
0.4142135623731
 10
-445.5031224259191
 20
665.7143274906181
 42
0.4142135623731
 10
-446.103122425919
 20
665.1143274906182
 42
0.4142135623731
 10
-445.5031224259191
 20
664.5143274906181
 42
0.4142135623731
  0
LWPOLYLINE
  5
236
330
1F
100
AcDbEntity
  8
A-4
  6
Continuous
 62
     7
370
     9
100
AcDbPolyline
 90
        4
 70
     1
 43
1.2
 10
-767.9031735634826
 20
-328.1780820453828
 42
0.4142135623731
 10
-768.5031735634825
 20
-327.5780820453828
 42
0.4142135623731
 10
-769.1031735634824
 20
-328.1780820453828
 42
0.4142135623731
 10
-768.5031735634825
 20
-328.7780820453828
 42
0.4142135623731
  0
LWPOLYLINE
  5
237
330
1F
100
AcDbEntity
  8
A-4
  6
Continuous
 62
     7
370
     9
100
AcDbPolyline
 90
        4
 70
     1
 43
1.2
 10
-444.9031224259191
 20
-328.1780820453828
 42
0.4142135623731
 10
-445.5031224259191
 20
-327.5780820453828
 42
0.4142135623731
 10
-446.103122425919
 20
-328.1780820453828
 42
0.4142135623731
 10
-445.5031224259191
 20
-328.7780820453828
 42
0.4142135623731
  0
LWPOLYLINE
  5
238
330
1F
100
AcDbEntity
  8
A-4
  6
Continuous
 62
     7
370
     9
100
AcDbPolyline
 90
        4
 70
     1
 43
1.2
 10
-767.9031735634826
 20
-274.4109922016328
 42
0.4142135623731
 10
-768.5031735634825
 20
-273.8109922016328
 42
0.4142135623731
 10
-769.1031735634824
 20
-274.4109922016328
 42
0.4142135623731
 10
-768.5031735634825
 20
-275.0109922016328
 42
0.4142135623731
  0
LWPOLYLINE
  5
239
330
1F
100
AcDbEntity
  8
A-4
  6
Continuous
 62
     7
370
     9
100
AcDbPolyline
 90
        4
 70
     1
 43
1.2
 10
-761.9030795363501
 20
-274.4109922016328
 42
0.4142135623731
 10
-762.50307953635
 20
-273.8109922016328
 42
0.4142135623731
 10
-763.1030795363499
 20
-274.4109922016328
 42
0.4142135623731
 10
-762.50307953635
 20
-275.0109922016328
 42
0.4142135623731
  0
LWPOLYLINE
  5
23A
330
1F
100
AcDbEntity
  8
A-4
  6
Continuous
 62
     7
370
     9
100
AcDbPolyline
 90
        4
 70
     1
 43
1.2
 10
-450.9032164530518
 20
-274.4109922016328
 42
0.4142135623731
 10
-451.5032164530517
 20
-273.8109922016328
 42
0.4142135623731
 10
-452.1032164530517
 20
-274.4109922016328
 42
0.4142135623731
 10
-451.5032164530517
 20
-275.0109922016328
 42
0.4142135623731
  0
LWPOLYLINE
  5
23B
330
1F
100
AcDbEntity
  8
A-4
  6
Continuous
 62
     7
370
     9
100
AcDbPolyline
 90
        4
 70
     1
 43
1.2
 10
-444.9031224259191
 20
-274.4109922016328
 42
0.4142135623731
 10
-445.5031224259191
 20
-273.8109922016328
 42
0.4142135623731
 10
-446.103122425919
 20
-274.4109922016328
 42
0.4142135623731
 10
-445.5031224259191
 20
-275.0109922016328
 42
0.4142135623731
  0
LWPOLYLINE
  5
23C
330
1F
100
AcDbEntity
  8
A-4
  6
Continuous
 62
     7
370
     9
100
AcDbPolyline
 90
        4
 70
     1
 43
1.2
 10
-761.9029310724565
 20
-222.7664164124647
 42
0.4142135623731
 10
-762.5029310724565
 20
-222.1664164124647
 42
0.4142135623731
 10
-763.1029310724564
 20
-222.7664164124647
 42
0.4142135623731
 10
-762.5029310724565
 20
-223.3664164124647
 42
0.4142135623731
  0
LWPOLYLINE
  5
23D
330
1F
100
AcDbEntity
  8
A-4
  6
Continuous
 62
     7
370
     9
100
AcDbPolyline
 90
        4
 70
     1
 43
1.2
 10
-750.9030185011939
 20
-222.7664164124647
 42
0.4142135623731
 10
-751.5030185011938
 20
-222.1664164124647
 42
0.4142135623731
 10
-752.1030185011937
 20
-222.7664164124647
 42
0.4142135623731
 10
-751.5030185011938
 20
-223.3664164124647
 42
0.4142135623731
  0
LWPOLYLINE
  5
23E
330
1F
100
AcDbEntity
  8
A-4
  6
Continuous
 62
     7
370
     9
100
AcDbPolyline
 90
        4
 70
     1
 43
1.2
 10
-461.9029805604208
 20
-222.7664164124647
 42
0.4142135623731
 10
-462.5029805604208
 20
-222.1664164124647
 42
0.4142135623731
 10
-463.1029805604207
 20
-222.7664164124647
 42
0.4142135623731
 10
-462.5029805604208
 20
-223.3664164124647
 42
0.4142135623731
  0
LWPOLYLINE
  5
23F
330
1F
100
AcDbEntity
  8
A-4
  6
Continuous
 62
     7
370
     9
100
AcDbPolyline
 90
        4
 70
     1
 43
1.2
 10
-450.9032164530518
 20
-222.7664164124647
 42
0.4142135623731
 10
-451.5032164530517
 20
-222.1664164124647
 42
0.4142135623731
 10
-452.1032164530517
 20
-222.7664164124647
 42
0.4142135623731
 10
-451.5032164530517
 20
-223.3664164124647
 42
0.4142135623731
  0
LWPOLYLINE
  5
240
330
1F
100
AcDbEntity
  8
A-4
  6
Continuous
 62
     7
370
     9
100
AcDbPolyline
 90
        4
 70
     1
 43
1.2
 10
317.4421946929575
 20
-131.5306029622958
 42
0.4142135623731
 10
316.8421946929574
 20
-130.9306029622958
 42
0.4142135623731
 10
316.2421946929575
 20
-131.5306029622958
 42
0.4142135623731
 10
316.8421946929574
 20
-132.1306029622958
 42
0.4142135623731
  0
LWPOLYLINE
  5
241
330
1F
100
AcDbEntity
  8
A-4
  6
Continuous
 62
     7
370
     9
100
AcDbPolyline
 90
        4
 70
     1
 43
1.2
 10
317.4421946929575
 20
-71.53047924238456
 42
0.4142135623731
 10
316.8421946929574
 20
-70.93047924238455
 42
0.4142135623731
 10
316.2421946929575
 20
-71.53047924238456
 42
0.4142135623731
 10
316.8421946929574
 20
-72.13047924238455
 42
0.4142135623731
  0
LWPOLYLINE
  5
242
330
1F
100
AcDbEntity
  8
A-4
  6
Continuous
 62
     7
370
     9
100
AcDbPolyline
 90
        4
 70
     1
 43
1.2
 10
317.4421946929575
 20
528.4699414053141
 42
0.4142135623731
 10
316.8421946929574
 20
529.069941405314
 42
0.4142135623731
 10
316.2421946929575
 20
528.4699414053141
 42
0.4142135623731
 10
316.8421946929574
 20
527.8699414053141
 42
0.4142135623731
  0
LWPOLYLINE
  5
243
330
1F
100
AcDbEntity
  8
A-4
  6
Continuous
 62
     7
370
     9
100
AcDbPolyline
 90
        4
 70
     1
 43
1.2
 10
317.4421946929575
 20
588.4699908932786
 42
0.4142135623731
 10
316.8421946929574
 20
589.0699908932786
 42
0.4142135623731
 10
316.2421946929575
 20
588.4699908932786
 42
0.4142135623731
 10
316.8421946929574
 20
587.8699908932787
 42
0.4142135623731
  0
LWPOLYLINE
  5
244
330
1F
100
AcDbEntity
  8
A-4
  6
Continuous
 62
     7
370
     9
100
AcDbPolyline
 90
        4
 70
     1
 43
1.2
 10
126.4422078897481
 20
-212.1306857721564
 42
0.4142135623731
 10
125.8422078897481
 20
-211.5306857721564
 42
0.4142135623731
 10
125.2422078897481
 20
-212.1306857721564
 42
0.4142135623731
 10
125.8422078897481
 20
-212.7306857721564
 42
0.4142135623731
  0
LWPOLYLINE
  5
245
330
1F
100
AcDbEntity
  8
A-4
  6
Continuous
 62
     7
370
     9
100
AcDbPolyline
 90
        4
 70
     1
 43
1.2
 10
201.4421584017836
 20
-212.1306857721564
 42
0.4142135623731
 10
200.8421584017835
 20
-211.5306857721564
 42
0.4142135623731
 10
200.2421584017835
 20
-212.1306857721564
 42
0.4142135623731
 10
200.8421584017835
 20
-212.7306857721564
 42
0.4142135623731
  0
LWPOLYLINE
  5
246
330
1F
100
AcDbEntity
  8
A-4
  6
Continuous
 62
     7
370
     9
100
AcDbPolyline
 90
        4
 70
     1
 43
1.2
 10
126.4422078897481
 20
-260.1306956697493
 42
0.4142135623731
 10
125.8422078897481
 20
-259.5306956697494
 42
0.4142135623731
 10
125.2422078897481
 20
-260.1306956697493
 42
0.4142135623731
 10
125.8422078897481
 20
-260.7306956697494
 42
0.4142135623731
  0
LWPOLYLINE
  5
247
330
1F
100
AcDbEntity
  8
A-4
  6
Continuous
 62
     7
370
     9
100
AcDbPolyline
 90
        4
 70
     1
 43
1.2
 10
207.4421781969693
 20
-260.1306956697493
 42
0.4142135623731
 10
206.8421781969693
 20
-259.5306956697494
 42
0.4142135623731
 10
206.2421781969693
 20
-260.1306956697493
 42
0.4142135623731
 10
206.8421781969693
 20
-260.7306956697494
 42
0.4142135623731
  0
LWPOLYLINE
  5
248
330
1F
100
AcDbEntity
  8
A-4
  6
Continuous
 62
     7
370
     9
100
AcDbPolyline
 90
        4
 70
     1
 43
1.2
 10
48.35049679388651
 20
-131.5306029622958
 42
0.4142135623731
 10
47.75049679388651
 20
-130.9306029622958
 42
0.4142135623731
 10
47.15049679388652
 20
-131.5306029622958
 42
0.4142135623731
 10
47.75049679388651
 20
-132.1306029622958
 42
0.4142135623731
  0
LWPOLYLINE
  5
249
330
1F
100
AcDbEntity
  8
A-4
  6
Continuous
 62
     7
370
     9
100
AcDbPolyline
 90
        4
 70
     1
 43
1.2
 10
48.35049679388651
 20
-125.5304347032164
 42
0.4142135623731
 10
47.75049679388651
 20
-124.9304347032164
 42
0.4142135623731
 10
47.15049679388652
 20
-125.5304347032164
 42
0.4142135623731
 10
47.75049679388651
 20
-126.1304347032164
 42
0.4142135623731
  0
LWPOLYLINE
  5
24A
330
1F
100
AcDbEntity
  8
A-4
  6
Continuous
 62
     7
370
     9
100
AcDbPolyline
 90
        4
 70
     1
 43
1.2
 10
48.35049679388651
 20
-121.5304462504081
 42
0.4142135623731
 10
47.75049679388651
 20
-120.9304462504081
 42
0.4142135623731
 10
47.15049679388652
 20
-121.5304462504081
 42
0.4142135623731
 10
47.75049679388651
 20
-122.1304462504081
 42
0.4142135623731
  0
LWPOLYLINE
  5
24B
330
1F
100
AcDbEntity
  8
A-4
  6
Continuous
 62
     7
370
     9
100
AcDbPolyline
 90
        4
 70
     1
 43
1.2
 10
48.35049679388651
 20
578.4699084133376
 42
0.4142135623731
 10
47.75049679388651
 20
579.0699084133377
 42
0.4142135623731
 10
47.15049679388652
 20
578.4699084133376
 42
0.4142135623731
 10
47.75049679388651
 20
577.8699084133377
 42
0.4142135623731
  0
LWPOLYLINE
  5
24C
330
1F
100
AcDbEntity
  8
A-4
  6
Continuous
 62
     7
370
     9
100
AcDbPolyline
 90
        4
 70
     1
 43
1.2
 10
48.35049679388651
 20
582.4699710980929
 42
0.4142135623731
 10
47.75049679388651
 20
583.0699710980928
 42
0.4142135623731
 10
47.15049679388652
 20
582.4699710980929
 42
0.4142135623731
 10
47.75049679388651
 20
581.8699710980928
 42
0.4142135623731
  0
LWPOLYLINE
  5
24D
330
1F
100
AcDbEntity
  8
A-4
  6
Continuous
 62
     7
370
     9
100
AcDbPolyline
 90
        4
 70
     1
 43
1.2
 10
48.35049679388651
 20
588.4699908932786
 42
0.4142135623731
 10
47.75049679388651
 20
589.0699908932786
 42
0.4142135623731
 10
47.15049679388652
 20
588.4699908932786
 42
0.4142135623731
 10
47.75049679388651
 20
587.8699908932787
 42
0.4142135623731
  0
LWPOLYLINE
  5
24E
330
1F
100
AcDbEntity
  8
A-4
  6
Continuous
 62
     7
370
     9
100
AcDbPolyline
 90
        4
 70
     1
 43
1.2
 10
-11.79979815438191
 20
-131.5306029622958
 42
0.4142135623731
 10
-12.39979815438191
 20
-130.9306029622958
 42
0.4142135623731
 10
-12.99979815438191
 20
-131.5306029622958
 42
0.4142135623731
 10
-12.39979815438191
 20
-132.1306029622958
 42
0.4142135623731
  0
LWPOLYLINE
  5
24F
330
1F
100
AcDbEntity
  8
A-4
  6
Continuous
 62
     7
370
     9
100
AcDbPolyline
 90
        4
 70
     1
 43
1.2
 10
-11.79979815438191
 20
588.4699908932786
 42
0.4142135623731
 10
-12.39979815438191
 20
589.0699908932786
 42
0.4142135623731
 10
-12.99979815438191
 20
588.4699908932786
 42
0.4142135623731
 10
-12.39979815438191
 20
587.8699908932787
 42
0.4142135623731
  0
LINE
  5
250
330
1F
100
AcDbEntity
  8
F-4ﾚｲﾔ
  6
Continuous
 62
     2
370
     9
100
AcDbLine
 10
302.8375640235615
 20
-371.2243803229025
 30
0.0
 11
302.8375640235615
 21
-341.2243926948936
 31
0.0
  0
LINE
  5
251
330
1F
100
AcDbEntity
  8
F-4ﾚｲﾔ
  6
Continuous
 62
     2
370
     9
100
AcDbLine
 10
302.8375640235615
 20
-341.2243926948936
 30
0.0
 11
437.837415559668
 21
-341.2243926948936
 31
0.0
  0
LINE
  5
252
330
1F
100
AcDbEntity
  8
F-4ﾚｲﾔ
  6
Continuous
 62
     2
370
     9
100
AcDbLine
 10
437.837415559668
 20
-341.2243926948936
 30
0.0
 11
437.837415559668
 21
-371.2243803229025
 31
0.0
  0
LINE
  5
253
330
1F
100
AcDbEntity
  8
F-4ﾚｲﾔ
  6
Continuous
 62
     2
370
     9
100
AcDbLine
 10
437.837415559668
 20
-371.2243803229025
 30
0.0
 11
302.8375640235615
 21
-371.2243803229025
 31
0.0
  0
TEXT
  5
254
330
1F
100
AcDbEntity
  8
F-4ﾚｲﾔ
  6
Continuous
 62
     2
370
     9
100
AcDbText
 10
331.3375640235617
 20
-364.8408158169903
 30
0.0
 40
18.288
  1
仕　様
 41
1.083333333333333
  7
ＭＳ ゴシック
100
AcDbText
  0
TEXT
  5
255
330
1F
100
AcDbEntity
  8
F-4ﾚｲﾔ
  6
Continuous
 62
     2
370
     9
100
AcDbText
 10
399.9182327049382
 20
-574.2628888942472
 30
0.0
 40
18.288
  1
材質：ＳＳ４００
 41
1.109375
  7
ＭＳ ゴシック
100
AcDbText
  0
TEXT
  5
256
330
1F
100
AcDbEntity
  8
F-4ﾚｲﾔ
  6
Continuous
 62
     2
370
     9
100
AcDbText
 10
399.9185444791148
 20
-502.2625028881239
 30
0.0
 40
18.288
  1
処理：溶融亜鉛めっき
 41
1.1125
  7
ＭＳ ゴシック
100
AcDbText
  0
TEXT
  5
257
330
1F
100
AcDbEntity
  8
F-4ﾚｲﾔ
  6
Continuous
 62
     3
370
     9
100
AcDbText
 10
364.8487195126934
 20
-667.6310413066536
 30
0.0
 40
22.86
  1
※脱着ピン付
 41
1.083333333333334
  7
ＭＳ ゴシック
100
AcDbText
  0
TEXT
  5
258
330
1F
100
AcDbEntity
  8
F-4ﾚｲﾔ
  6
Continuous
 62
     2
370
     9
100
AcDbText
 10
364.090925905952
 20
-402.5925487205481
 30
0.0
 40
18.288
  1
スチール製グレーチング　１１０°開閉式　プレーンタイプ
 41
1.12037037037037
  7
ＭＳ ゴシック
100
AcDbText
  0
TEXT
  5
259
330
1F
100
AcDbEntity
  8
F-4ﾚｲﾔ
  6
Continuous
 62
     2
370
     9
100
AcDbText
 10
399.9185296327254
 20
-469.2624682465487
 30
0.0
 40
18.288
  1
材質：ＳＳ４００
 41
1.109375
  7
ＭＳ ゴシック
100
AcDbText
  0
TEXT
  5
25A
330
1F
100
AcDbEntity
  8
F-4ﾚｲﾔ
  6
Continuous
 62
     2
370
     9
100
AcDbText
 10
399.9182475513276
 20
-607.2628493038756
 30
0.0
 40
18.288
  1
処理：樹脂系塗装
 41
1.109375
  7
ＭＳ ゴシック
100
AcDbText
  0
TEXT
  5
25B
330
1F
100
AcDbEntity
  8
F-5ﾚｲﾔ
  6
Continuous
 62
     2
370
     0
100
AcDbText
 10
-512.0455100730139
 20
-793.139783035557
 30
0.0
 40
18.288
  1
スチール製グレーチング　１１０°開閉式　プレーンタイプ
 41
0.8990740740740741
  7
ＭＳ ゴシック
100
AcDbText
  0
TEXT
  5
25C
330
1F
100
AcDbEntity
  8
F-4ﾚｲﾔ
  6
Continuous
 62
     2
370
     9
100
AcDbText
 10
364.090925905952
 20
-437.2802791626926
 30
0.0
 40
18.288
  1
集水桝用　ＨＳＦ　６３７５
 41
1.115384615384615
  7
ＭＳ ゴシック
100
AcDbText
  0
TEXT
  5
25D
330
1F
100
AcDbEntity
  8
F-4ﾚｲﾔ
  6
Continuous
 62
     2
370
     9
100
AcDbText
 10
364.0918315357026
 20
-541.262854252672
 30
0.0
 40
18.288
  1
スチール製受枠　Ｌ－７５（二方受四方枠）
 41
1.11875
  7
ＭＳ ゴシック
100
AcDbText
  0
TEXT
  5
25E
330
1F
100
AcDbEntity
  8
F-5ﾚｲﾔ
  6
Continuous
 62
     2
370
     0
100
AcDbText
 10
-39.07081062922896
 20
-822.5231586954468
 30
0.0
 40
18.288
  1
集水桝用　ＨＳＦ　６３７５
 41
0.8980769230769232
  7
ＭＳ ゴシック
100
AcDbText
  0
LINE
  5
25F
330
1F
100
AcDbEntity
  8
A-5
  6
Continuous
 62
     7
370
     9
100
AcDbLine
 10
-730.5030976819369
 20
594.8701208816655
 30
0.0
 11
-735.2866043331194
 21
606.4185333077635
 31
0.0
  0
LINE
  5
260
330
1F
100
AcDbEntity
  8
A-5
  6
Continuous
 62
     7
370
     9
100
AcDbLine
 10
-730.5030976819369
 20
594.8701208816655
 30
0.0
 11
-732.1346416404463
 21
607.2631443983461
 31
0.0
  0
LINE
  5
261
330
1F
100
AcDbEntity
  8
A-5
  6
Continuous
 62
     7
370
     9
100
AcDbLine
 10
-720.503015201996
 20
-159.5302252041666
 30
0.0
 11
-715.7194343188669
 21
-171.0787860941581
 31
0.0
  0
LINE
  5
262
330
1F
100
AcDbEntity
  8
A-5
  6
Continuous
 62
     7
370
     9
100
AcDbLine
 10
-720.503015201996
 20
-159.5302252041666
 30
0.0
 11
-718.8714712434867
 21
-171.9233971847409
 31
0.0
  0
LINE
  5
263
330
1F
100
AcDbEntity
  8
A-5
  6
Continuous
 62
     7
370
     9
100
AcDbLine
 10
-736.8177866995678
 20
-108.7353082779631
 30
0.0
 11
-744.427303565066
 21
-98.81836557842752
 31
0.0
  0
LINE
  5
264
330
1F
100
AcDbEntity
  8
A-5
  6
Continuous
 62
     7
370
     9
100
AcDbLine
 10
-736.8177866995678
 20
-108.7353082779631
 30
0.0
 11
-741.6012191188034
 21
-97.1868216199183
 31
0.0
  0
LINE
  5
265
330
1F
100
AcDbEntity
  8
A-5
  6
Continuous
 62
     7
370
     9
100
AcDbLine
 10
-730.5030976819369
 20
594.8701208816655
 30
0.0
 11
-761.10284232404
 21
709.0700324631688
 31
0.0
  0
LINE
  5
266
330
1F
100
AcDbEntity
  8
A-5
  6
Continuous
 62
     7
370
     9
100
AcDbLine
 10
-736.8177866995678
 20
-108.7353082779631
 30
0.0
 11
-793.3176514324648
 21
-10.87444204063188
 31
0.0
  0
LINE
  5
267
330
1F
100
AcDbEntity
  8
A-5
  6
Continuous
 62
     7
370
     9
100
AcDbLine
 10
-497.8027209135669
 20
552.3381846485573
 30
0.0
 11
-496.1712511870044
 21
564.731208165238
 31
0.0
  0
LINE
  5
268
330
1F
100
AcDbEntity
  8
A-5
  6
Continuous
 62
     7
370
     9
100
AcDbLine
 10
-497.8027209135669
 20
552.3381846485573
 30
0.0
 11
-493.0192142623845
 21
563.8867455385489
 31
0.0
  0
LINE
  5
269
330
1F
100
AcDbEntity
  8
A-5
  6
Continuous
 62
     7
370
     9
100
AcDbLine
 10
-526.1631104168397
 20
533.9700832708123
 30
0.0
 11
-524.5314922263835
 21
546.3631067874932
 31
0.0
  0
LINE
  5
26A
330
1F
100
AcDbEntity
  8
A-5
  6
Continuous
 62
     7
370
     9
100
AcDbLine
 10
-526.1631104168397
 20
533.9700832708123
 30
0.0
 11
-521.3795295337104
 21
545.5186441608039
 31
0.0
  0
LINE
  5
26B
330
1F
100
AcDbEntity
  8
A-5
  6
Continuous
 62
     7
370
     9
100
AcDbLine
 10
-538.0322790850197
 20
578.4700568772313
 30
0.0
 11
-536.4008093584572
 21
590.863080393912
 31
0.0
  0
LINE
  5
26C
330
1F
100
AcDbEntity
  8
A-5
  6
Continuous
 62
     7
370
     9
100
AcDbLine
 10
-538.0322790850197
 20
578.4700568772313
 30
0.0
 11
-533.2487724338372
 21
590.0184693033292
 31
0.0
  0
LINE
  5
26D
330
1F
100
AcDbEntity
  8
A-5
  6
Continuous
 62
     7
370
     9
100
AcDbLine
 10
-455.806590872393
 20
709.0700324631688
 30
0.0
 11
-167.566094211181
 21
709.0700324631688
 31
0.0
  0
LINE
  5
26E
330
1F
100
AcDbEntity
  8
A-5
  6
Continuous
 62
     7
370
     9
100
AcDbLine
 10
-468.5272742022072
 20
749.0699169912516
 30
0.0
 11
-236.2002098942469
 21
749.0699169912516
 31
0.0
  0
LINE
  5
26F
330
1F
100
AcDbEntity
  8
A-5
  6
Continuous
 62
     7
370
     9
100
AcDbLine
 10
-497.8027209135669
 20
552.3381846485573
 30
0.0
 11
-455.806590872393
 21
709.0700324631688
 31
0.0
  0
LINE
  5
270
330
1F
100
AcDbEntity
  8
A-5
  6
Continuous
 62
     7
370
     9
100
AcDbLine
 10
-526.1631104168397
 20
533.9700832708123
 30
0.0
 11
-468.5272742022072
 21
749.0699169912516
 31
0.0
  0
LINE
  5
271
330
1F
100
AcDbEntity
  8
A-5
  6
Continuous
 62
     7
370
     9
100
AcDbLine
 10
-445.5031224259191
 20
463.2928074842836
 30
0.0
 11
-398.4232917407417
 21
568.5689998143089
 31
0.0
  0
LINE
  5
272
330
1F
100
AcDbEntity
  8
A-5
  6
Continuous
 62
     7
370
     9
100
AcDbLine
 10
-398.4232917407417
 20
568.5689998143089
 30
0.0
 11
-273.1562876761304
 21
568.5689998143089
 31
0.0
  0
LINE
  5
273
330
1F
100
AcDbEntity
  8
A-5
  6
Continuous
 62
     7
370
     9
100
AcDbLine
 10
-445.5031224259191
 20
463.2928074842836
 30
0.0
 11
-441.9332338728153
 21
475.2722105934475
 31
0.0
  0
LINE
  5
274
330
1F
100
AcDbEntity
  8
A-5
  6
Continuous
 62
     7
370
     9
100
AcDbLine
 10
-445.5031224259191
 20
463.2928074842836
 30
0.0
 11
-438.9543800800577
 21
473.939895612451
 31
0.0
  0
LINE
  5
275
330
1F
100
AcDbEntity
  8
A-5
  6
Continuous
 62
     7
370
     9
100
AcDbLine
 10
254.5921748977718
 20
612.9193218159982
 30
0.0
 11
260.3323828791906
 21
626.7775354984307
 31
0.0
  0
LINE
  5
276
330
1F
100
AcDbEntity
  8
A-5
  6
Continuous
 62
     7
370
     9
100
AcDbLine
 10
254.5921748977718
 20
612.9193218159982
 30
0.0
 11
263.7235951363696
 21
624.8195936698833
 31
0.0
  0
LINE
  5
277
330
1F
100
AcDbEntity
  8
A-5
  6
Continuous
 62
     7
370
     9
100
AcDbLine
 10
254.5921748977718
 20
612.9193218159982
 30
0.0
 11
305.7865339296553
 21
701.5905699684475
 31
0.0
  0
LINE
  5
278
330
1F
100
AcDbEntity
  8
A-5
  6
Continuous
 62
     7
370
     9
100
AcDbLine
 10
305.7865339296553
 20
701.5905699684475
 30
0.0
 11
463.1817184207869
 21
701.5905699684475
 31
0.0
  0
LINE
  5
279
330
1F
100
AcDbEntity
  8
A-5
  6
Continuous
 62
     7
370
     9
100
AcDbLine
 10
-114.5557990649605
 20
702.1430041164629
 30
0.0
 11
60.21300141276323
 21
702.1430041164629
 31
0.0
  0
LINE
  5
27A
330
1F
100
AcDbEntity
  8
A-5
  6
Continuous
 62
     7
370
     9
100
AcDbLine
 10
125.8422078897481
 20
588.4699908932786
 30
0.0
 11
60.21300141276323
 21
702.1430041164629
 31
0.0
  0
LINE
  5
27B
330
1F
100
AcDbEntity
  8
A-5
  6
Continuous
 62
     7
370
     9
100
AcDbLine
 10
125.8422078897481
 20
588.4699908932786
 30
0.0
 11
116.7107876511501
 21
600.3702627471638
 31
0.0
  0
LINE
  5
27C
330
1F
100
AcDbEntity
  8
A-5
  6
Continuous
 62
     7
370
     9
100
AcDbLine
 10
125.8422078897481
 20
588.4699908932786
 30
0.0
 11
120.1018514444356
 21
602.328204575711
 31
0.0
  0
TEXT
  5
27D
330
1F
100
AcDbEntity
  8
A-5
  6
Continuous
 62
     7
370
     9
100
AcDbText
 10
-461.698464618698
 20
754.8278019152382
 30
0.0
 40
13.716
  1
クロスバー □８ ＠100
 41
1.158730158730159
  7
ＭＳ ゴシック
100
AcDbText
  0
TEXT
  5
27E
330
1F
100
AcDbEntity
  8
A-5
  6
Continuous
 62
     7
370
     9
100
AcDbText
 10
-447.4623979551105
 20
716.3660033246554
 30
0.0
 40
13.716
  1
メインバー Ⅰ－７５ ＠35.3
 41
1.16025641025641
  7
ＭＳ ゴシック
100
AcDbText
  0
TEXT
  5
27F
330
1F
100
AcDbEntity
  8
A-5
  6
Continuous
 62
     7
370
     9
100
AcDbText
 10
313.4273915230884
 20
711.4136932264713
 30
0.0
 40
13.716
  1
アンカー：φ９
 41
1.142857142857143
  7
ＭＳ ゴシック
100
AcDbText
  0
TEXT
  5
280
330
1F
100
AcDbEntity
  8
A-5
  6
Continuous
 62
     7
370
     9
100
AcDbText
 10
-97.10878995257669
 20
711.5683926035825
 30
0.0
 40
13.716
  1
受枠：Ｌ－７５
 41
1.142857142857143
  7
ＭＳ ゴシック
100
AcDbText
  0
TEXT
  5
281
330
1F
100
AcDbEntity
  8
A-5
  6
Continuous
 62
     7
370
     9
100
AcDbText
 10
-104.1836536957143
 20
680.4387803252888
 30
0.0
 40
13.716
  1
（二方受四方枠）
 41
1.145833333333333
  7
ＭＳ ゴシック
100
AcDbText
  0
TEXT
  5
282
330
1F
100
AcDbEntity
  8
A-5
  6
Continuous
 62
     7
370
     9
100
AcDbText
 10
-477.8269757897811
 20
794.3018273322565
 30
0.0
 40
13.716
  1
エンドプレート ＦＢ4.5×65
 41
1.16025641025641
  7
ＭＳ ゴシック
100
AcDbText
  0
TEXT
  5
283
330
1F
100
AcDbEntity
  8
A-5
  6
Continuous
 62
     7
370
     9
100
AcDbText
 10
-398.7071745004547
 20
574.7661893994019
 30
0.0
 40
13.716
  1
ＦＢ６×７５
 41
1.138888888888889
  7
ＭＳ ゴシック
100
AcDbText
  0
LINE
  5
284
330
1F
100
AcDbEntity
  8
A-5
  6
Continuous
 62
     7
370
     9
100
AcDbLine
 10
-761.10284232404
 20
709.0700324631688
 30
0.0
 11
-1006.626730472054
 21
709.0700324631688
 31
0.0
  0
TEXT
  5
285
330
1F
100
AcDbEntity
  8
A-5
  6
Continuous
 62
     7
370
     9
100
AcDbText
 10
-1005.049080144114
 20
717.1118859260066
 30
0.0
 40
13.716
  1
六角頭ピン φ１４×３０
 41
1.152173913043478
  7
ＭＳ ゴシック
100
AcDbText
  0
LINE
  5
286
330
1F
100
AcDbEntity
  8
A-5
  6
Continuous
 62
     7
370
     9
100
AcDbLine
 10
-793.3176514324648
 20
-10.87444204063188
 30
0.0
 11
-954.1938499775684
 21
-10.87444204063188
 31
0.0
  0
LINE
  5
287
330
1F
100
AcDbEntity
  8
A-5
  6
Continuous
 62
     7
370
     9
100
AcDbLine
 10
-720.503015201996
 20
-159.5302252041666
 30
0.0
 11
-662.0354842555222
 21
-382.4757818447915
 31
0.0
  0
LINE
  5
288
330
1F
100
AcDbEntity
  8
A-5
  6
Continuous
 62
     7
370
     9
100
AcDbLine
 10
-662.0354842555222
 20
-382.4757818447915
 30
0.0
 11
-494.5161014694158
 21
-382.4757818447915
 31
0.0
  0
TEXT
  5
289
330
1F
100
AcDbEntity
  8
A-5
  6
Continuous
 62
     7
370
     9
100
AcDbText
 10
-656.9396887529884
 20
-376.7333742817109
 30
0.0
 40
13.716
  1
ボックス φ２０
 41
1.144444444444444
  7
ＭＳ ゴシック
100
AcDbText
  0
TEXT
  5
28A
330
1F
100
AcDbEntity
  8
A-4
  6
Continuous
 62
     2
370
     9
100
AcDbText
 10
-591.325776547092
 20
672.0982799821722
 30
0.0
 40
18.288
  1
161.5
 41
1.1
  7
ＭＳ ゴシック
100
AcDbText
  0
LINE
  5
28B
330
1F
100
AcDbEntity
  8
A-5
  6
Continuous
 62
     7
370
     9
100
AcDbLine
 10
-538.0322790850197
 20
578.4700568772313
 30
0.0
 11
-481.6021872062935
 21
789.0699499832277
 31
0.0
  0
LINE
  5
28C
330
1F
100
AcDbEntity
  8
A-5
  6
Continuous
 62
     7
370
     9
100
AcDbLine
 10
-481.6021872062935
 20
789.0699499832277
 30
0.0
 11
-200.5589283539176
 21
789.0699499832277
 31
0.0
  0
TEXT
  5
28D
330
1F
100
AcDbEntity
  8
A-5
  6
Continuous
 62
     7
370
     9
100
AcDbText
 10
-951.6716810190591
 20
-3.580401209762111
 30
0.0
 40
13.716
  1
脱着ピン φ１３
 41
1.144444444444444
  7
ＭＳ ゴシック
100
AcDbText
  0
TEXT
  5
28E
330
1F
100
AcDbEntity
  8
F-5ﾚｲﾔ
  6
Continuous
 62
     3
370
     9
100
AcDbText
 10
467.837415559668
 20
-366.9943803229025
 30
0.0
 40
22.86
  1
※適用荷重：Ｔ－２５
 41
1.09
  7
ＭＳ ゴシック
100
AcDbText
  0
ENDSEC
  0
SECTION
  2
OBJECTS
  0
DICTIONARY
  5
C
330
0
100
AcDbDictionary
281
     1
  3
ACAD_DETAILVIEWSTYLE
350
2D4
  3
ACAD_GROUP
350
D
  3
ACAD_LAYOUT
350
1A
  3
ACAD_MATERIAL
350
43
  3
ACAD_MLEADERSTYLE
350
6B
  3
ACAD_MLINESTYLE
350
17
  3
ACAD_PLOTSETTINGS
350
19
  3
ACAD_PLOTSTYLENAME
350
E
  3
ACAD_SCALELIST
350
47
  3
ACAD_SECTIONVIEWSTYLE
350
2D5
  3
ACAD_TABLESTYLE
350
69
  3
ACAD_VISUALSTYLE
350
2A
  3
ACDB_RECOMPOSE_DATA
350
2D1
  3
AcDbVariableDictionary
350
291
  0
DICTIONARY
  5
28F
330
8
100
AcDbDictionary
280
     1
281
     1
  3
ACAD_XREC_ROUNDTRIP
360
290
  0
DICTIONARY
  5
2D4
102
{ACAD_REACTORS
330
C
102
}
330
C
100
AcDbDictionary
281
     1
  0
DICTIONARY
  5
D
102
{ACAD_REACTORS
330
C
102
}
330
C
100
AcDbDictionary
281
     1
  0
DICTIONARY
  5
1A
102
{ACAD_REACTORS
330
C
102
}
330
C
100
AcDbDictionary
281
     1
  3
Layout1
350
1E
  3
Layout2
350
26
  3
Model
350
22
  0
DICTIONARY
  5
43
102
{ACAD_REACTORS
330
C
102
}
330
C
100
AcDbDictionary
281
     1
  3
ByBlock
350
45
  3
ByLayer
350
44
  3
Global
350
46
  0
DICTIONARY
  5
6B
102
{ACAD_REACTORS
330
C
102
}
330
C
100
AcDbDictionary
281
     1
  3
Standard
350
6C
  0
DICTIONARY
  5
17
102
{ACAD_REACTORS
330
C
102
}
330
C
100
AcDbDictionary
281
     1
  3
Standard
350
18
  0
DICTIONARY
  5
19
102
{ACAD_REACTORS
330
C
102
}
330
C
100
AcDbDictionary
281
     1
  0
ACDBDICTIONARYWDFLT
  5
E
102
{ACAD_REACTORS
330
C
102
}
330
C
100
AcDbDictionary
281
     1
  3
Normal
350
F
100
AcDbDictionaryWithDefault
340
F
  0
DICTIONARY
  5
47
102
{ACAD_REACTORS
330
C
102
}
330
C
100
AcDbDictionary
281
     1
  3
A0
350
48
  3
A1
350
49
  3
A2
350
4A
  3
A3
350
4B
  3
A4
350
4C
  3
A5
350
4D
  3
A6
350
4E
  3
A7
350
4F
  3
A8
350
50
  3
A9
350
51
  3
B0
350
52
  3
B1
350
53
  3
B2
350
54
  3
B3
350
55
  3
B4
350
56
  3
B5
350
57
  3
B6
350
58
  3
B7
350
59
  3
B8
350
5A
  3
B9
350
5B
  3
C0
350
5C
  3
C1
350
5D
  3
C2
350
5E
  3
C3
350
5F
  3
C4
350
60
  3
C5
350
61
  3
C6
350
62
  3
C7
350
63
  3
C8
350
64
  3
C9
350
65
  3
D0
350
66
  3
D1
350
67
  3
D2
350
68
  0
DICTIONARY
  5
2D5
102
{ACAD_REACTORS
330
C
102
}
330
C
100
AcDbDictionary
281
     1
  0
DICTIONARY
  5
69
102
{ACAD_REACTORS
330
C
102
}
330
C
100
AcDbDictionary
281
     1
  3
Standard
350
6A
  0
DICTIONARY
  5
2A
102
{ACAD_REACTORS
330
C
102
}
330
C
100
AcDbDictionary
281
     1
  3
2dWireframe
350
2F
  3
Basic
350
32
  3
Brighten
350
36
  3
ColorChange
350
3A
  3
Conceptual
350
34
  3
Dim
350
35
  3
EdgeColorOff
350
3D
  3
Facepattern
350
39
  3
Flat
350
2B
  3
FlatWithEdges
350
2C
  3
Gouraud
350
2D
  3
GouraudWithEdges
350
2E
  3
Hidden
350
31
  3
JitterOff
350
3B
  3
Linepattern
350
38
  3
OverhangOff
350
3C
  3
Realistic
350
33
  3
Shaded
350
42
  3
Shaded with edges
350
41
  3
Shades of Gray
350
3E
  3
Sketchy
350
3F
  3
Thicken
350
37
  3
Wireframe
350
30
  3
X-Ray
350
40
  0
XRECORD
  5
2D1
102
{ACAD_REACTORS
330
C
102
}
330
C
100
AcDbXrecord
280
     1
 90
        1
330
6A
  0
DICTIONARY
  5
291
102
{ACAD_REACTORS
330
C
102
}
330
C
100
AcDbDictionary
281
     1
  3
CANNOSCALE
350
292
  3
CENTEREXE
350
2D6
  3
CENTERLTYPEFILE
350
2D7
  3
CMLEADERSTYLE
350
2D3
  3
CTABLESTYLE
350
2D2
  3
MSLTSCALE
350
293
  3
XCLIPFRAME
350
294
  0
XRECORD
  5
290
102
{ACAD_REACTORS
330
28F
102
}
330
28F
100
AcDbXrecord
280
     1
102
VTR_0.000_0.000_1.000_1.000_VISUALSTYLE
340
2F
102
VTR_0.000_0.000_1.000_1.000_GRIDDISPLAY
 70
     3
102
VTR_0.000_0.000_1.000_1.000_GRIDMAJOR
 70
     5
102
VTR_0.000_0.000_1.000_1.000_DEFAULTLIGHTING
280
     1
102
VTR_0.000_0.000_1.000_1.000_DEFAULTLIGHTINGTYPE
 70
     1
102
VTR_0.000_0.000_1.000_1.000_BRIGHTNESS
141
0.0
102
VTR_0.000_0.000_1.000_1.000_CONTRAST
142
0.0
  0
LAYOUT
  5
1E
102
{ACAD_REACTORS
330
1A
102
}
330
1A
100
AcDbPlotSettings
  1

  2
none_device
  4

  6

 40
0.0
 41
0.0
 42
0.0
 43
0.0
 44
0.0
 45
0.0
 46
0.0
 47
0.0
 48
0.0
 49
0.0
140
0.0
141
0.0
142
1.0
143
1.0
 70
   688
 72
     1
 73
     0
 74
     5
  7

 75
    16
 76
     0
 77
     5
 78
   300
147
1.0
148
0.0
149
0.0
100
AcDbLayout
  1
Layout1
 70
     1
 71
     1
 10
0.0
 20
0.0
 11
420.0
 21
297.0
 12
0.0
 22
0.0
 32
0.0
 14
1.000000000000000E+20
 24
1.000000000000000E+20
 34
1.000000000000000E+20
 15
-1.000000000000000E+20
 25
-1.000000000000000E+20
 35
-1.000000000000000E+20
146
0.0
 13
0.0
 23
0.0
 33
0.0
 16
1.0
 26
0.0
 36
0.0
 17
0.0
 27
1.0
 37
0.0
 76
     0
330
1B
  0
LAYOUT
  5
26
102
{ACAD_REACTORS
330
1A
102
}
330
1A
100
AcDbPlotSettings
  1

  2
none_device
  4

  6

 40
0.0
 41
0.0
 42
0.0
 43
0.0
 44
0.0
 45
0.0
 46
0.0
 47
0.0
 48
0.0
 49
0.0
140
0.0
141
0.0
142
1.0
143
1.0
 70
   688
 72
     1
 73
     0
 74
     5
  7

 75
    16
 76
     0
 77
     5
 78
   300
147
1.0
148
0.0
149
0.0
100
AcDbLayout
  1
Layout2
 70
     1
 71
     2
 10
0.0
 20
0.0
 11
0.0
 21
0.0
 12
0.0
 22
0.0
 32
0.0
 14
0.0
 24
0.0
 34
0.0
 15
0.0
 25
0.0
 35
0.0
146
0.0
 13
0.0
 23
0.0
 33
0.0
 16
1.0
 26
0.0
 36
0.0
 17
0.0
 27
1.0
 37
0.0
 76
     0
330
23
  0
LAYOUT
  5
22
102
{ACAD_REACTORS
330
1A
102
}
330
1A
100
AcDbPlotSettings
  1

  2
none_device
  4
Letter_(8.50_x_11.00_Inches)
  6

 40
6.35
 41
6.35
 42
6.35000508
 43
6.35000508
 44
215.9
 45
279.4
 46
0.0
 47
0.0
 48
0.0
 49
0.0
140
0.0
141
0.0
142
1.0
143
1.0
 70
  1712
 72
     1
 73
     0
 74
     0
  7

 75
     0
 76
     0
 77
     5
 78
   300
147
1.0
148
0.0
149
0.0
100
AcDbLayout
  1
Model
 70
     1
 71
     0
 10
-1260.0
 20
-891.0
 11
1260.0
 21
891.0
 12
0.0
 22
0.0
 32
0.0
 14
-1260.0
 24
-891.0
 34
0.0
 15
1260.0
 25
891.0
 35
0.0
146
0.0
 13
0.0
 23
0.0
 33
0.0
 16
1.0
 26
0.0
 36
0.0
 17
0.0
 27
1.0
 37
0.0
 76
     0
330
1F
331
29
  0
MATERIAL
  5
45
102
{ACAD_REACTORS
330
43
102
}
102
{ACAD_XDICTIONARY
360
2C7
102
}
330
43
100
AcDbMaterial
  1
ByBlock
  0
MATERIAL
  5
44
102
{ACAD_REACTORS
330
43
102
}
102
{ACAD_XDICTIONARY
360
2C5
102
}
330
43
100
AcDbMaterial
  1
ByLayer
  0
MATERIAL
  5
46
102
{ACAD_REACTORS
330
43
102
}
102
{ACAD_XDICTIONARY
360
2C9
102
}
330
43
100
AcDbMaterial
  1
Global
  0
MLEADERSTYLE
  5
6C
102
{ACAD_REACTORS
330
6B
102
}
102
{ACAD_XDICTIONARY
360
2CF
102
}
330
6B
100
AcDbMLeaderStyle
170
     2
171
     1
172
     0
 90
        2
 40
0.0
 41
0.0
173
     1
 91
-1056964608
340
14
 92
       -2
290
     1
 42
2.0
291
     1
 43
8.0
  3
Standard
341
0
 44
4.0
300

342
11
174
     1
178
     6
175
     1
176
     0
 93
-1056964608
 45
4.0
292
     0
297
     0
 46
4.0
343
0
 94
-1056964608
 47
1.0
 49
1.0
140
1.0
293
     1
141
0.0
294
     1
177
     0
142
1.0
295
     0
296
     0
143
3.75
1001
ACAD_MLEADERVER
1070
     2
  0
MLINESTYLE
  5
18
102
{ACAD_REACTORS
330
17
102
}
330
17
100
AcDbMlineStyle
  2
Standard
 70
     0
  3

 62
   256
 51
90.0
 52
90.0
 71
     2
 49
0.5
 62
   256
  6
BYLAYER
 49
-0.5
 62
   256
  6
BYLAYER
  0
ACDBPLACEHOLDER
  5
F
102
{ACAD_REACTORS
330
E
102
}
330
E
  0
SCALE
  5
48
102
{ACAD_REACTORS
330
47
102
}
330
47
100
AcDbScale
 70
     0
300
1:1
140
1.0
141
1.0
290
     1
  0
SCALE
  5
49
102
{ACAD_REACTORS
330
47
102
}
330
47
100
AcDbScale
 70
     0
300
1:2
140
1.0
141
2.0
290
     0
  0
SCALE
  5
4A
102
{ACAD_REACTORS
330
47
102
}
330
47
100
AcDbScale
 70
     0
300
1:4
140
1.0
141
4.0
290
     0
  0
SCALE
  5
4B
102
{ACAD_REACTORS
330
47
102
}
330
47
100
AcDbScale
 70
     0
300
1:5
140
1.0
141
5.0
290
     0
  0
SCALE
  5
4C
102
{ACAD_REACTORS
330
47
102
}
330
47
100
AcDbScale
 70
     0
300
1:8
140
1.0
141
8.0
290
     0
  0
SCALE
  5
4D
102
{ACAD_REACTORS
330
47
102
}
330
47
100
AcDbScale
 70
     0
300
1:10
140
1.0
141
10.0
290
     0
  0
SCALE
  5
4E
102
{ACAD_REACTORS
330
47
102
}
330
47
100
AcDbScale
 70
     0
300
1:16
140
1.0
141
16.0
290
     0
  0
SCALE
  5
4F
102
{ACAD_REACTORS
330
47
102
}
330
47
100
AcDbScale
 70
     0
300
1:20
140
1.0
141
20.0
290
     0
  0
SCALE
  5
50
102
{ACAD_REACTORS
330
47
102
}
330
47
100
AcDbScale
 70
     0
300
1:30
140
1.0
141
30.0
290
     0
  0
SCALE
  5
51
102
{ACAD_REACTORS
330
47
102
}
330
47
100
AcDbScale
 70
     0
300
1:40
140
1.0
141
40.0
290
     0
  0
SCALE
  5
52
102
{ACAD_REACTORS
330
47
102
}
330
47
100
AcDbScale
 70
     0
300
1:50
140
1.0
141
50.0
290
     0
  0
SCALE
  5
53
102
{ACAD_REACTORS
330
47
102
}
330
47
100
AcDbScale
 70
     0
300
1:100
140
1.0
141
100.0
290
     0
  0
SCALE
  5
54
102
{ACAD_REACTORS
330
47
102
}
330
47
100
AcDbScale
 70
     0
300
2:1
140
2.0
141
1.0
290
     0
  0
SCALE
  5
55
102
{ACAD_REACTORS
330
47
102
}
330
47
100
AcDbScale
 70
     0
300
4:1
140
4.0
141
1.0
290
     0
  0
SCALE
  5
56
102
{ACAD_REACTORS
330
47
102
}
330
47
100
AcDbScale
 70
     0
300
8:1
140
8.0
141
1.0
290
     0
  0
SCALE
  5
57
102
{ACAD_REACTORS
330
47
102
}
330
47
100
AcDbScale
 70
     0
300
10:1
140
10.0
141
1.0
290
     0
  0
SCALE
  5
58
102
{ACAD_REACTORS
330
47
102
}
330
47
100
AcDbScale
 70
     0
300
100:1
140
100.0
141
1.0
290
     0
  0
SCALE
  5
59
102
{ACAD_REACTORS
330
47
102
}
330
47
100
AcDbScale
 70
     0
300
1/128" = 1'-0"
140
0.0078125
141
12.0
290
     0
  0
SCALE
  5
5A
102
{ACAD_REACTORS
330
47
102
}
330
47
100
AcDbScale
 70
     0
300
1/64" = 1'-0"
140
0.015625
141
12.0
290
     0
  0
SCALE
  5
5B
102
{ACAD_REACTORS
330
47
102
}
330
47
100
AcDbScale
 70
     0
300
1/32" = 1'-0"
140
0.03125
141
12.0
290
     0
  0
SCALE
  5
5C
102
{ACAD_REACTORS
330
47
102
}
330
47
100
AcDbScale
 70
     0
300
1/16" = 1'-0"
140
0.0625
141
12.0
290
     0
  0
SCALE
  5
5D
102
{ACAD_REACTORS
330
47
102
}
330
47
100
AcDbScale
 70
     0
300
3/32" = 1'-0"
140
0.09375
141
12.0
290
     0
  0
SCALE
  5
5E
102
{ACAD_REACTORS
330
47
102
}
330
47
100
AcDbScale
 70
     0
300
1/8" = 1'-0"
140
0.125
141
12.0
290
     0
  0
SCALE
  5
5F
102
{ACAD_REACTORS
330
47
102
}
330
47
100
AcDbScale
 70
     0
300
3/16" = 1'-0"
140
0.1875
141
12.0
290
     0
  0
SCALE
  5
60
102
{ACAD_REACTORS
330
47
102
}
330
47
100
AcDbScale
 70
     0
300
1/4" = 1'-0"
140
0.25
141
12.0
290
     0
  0
SCALE
  5
61
102
{ACAD_REACTORS
330
47
102
}
330
47
100
AcDbScale
 70
     0
300
3/8" = 1'-0"
140
0.375
141
12.0
290
     0
  0
SCALE
  5
62
102
{ACAD_REACTORS
330
47
102
}
330
47
100
AcDbScale
 70
     0
300
1/2" = 1'-0"
140
0.5
141
12.0
290
     0
  0
SCALE
  5
63
102
{ACAD_REACTORS
330
47
102
}
330
47
100
AcDbScale
 70
     0
300
3/4" = 1'-0"
140
0.75
141
12.0
290
     0
  0
SCALE
  5
64
102
{ACAD_REACTORS
330
47
102
}
330
47
100
AcDbScale
 70
     0
300
1" = 1'-0"
140
1.0
141
12.0
290
     0
  0
SCALE
  5
65
102
{ACAD_REACTORS
330
47
102
}
330
47
100
AcDbScale
 70
     0
300
1-1/2" = 1'-0"
140
1.5
141
12.0
290
     0
  0
SCALE
  5
66
102
{ACAD_REACTORS
330
47
102
}
330
47
100
AcDbScale
 70
     0
300
3" = 1'-0"
140
3.0
141
12.0
290
     0
  0
SCALE
  5
67
102
{ACAD_REACTORS
330
47
102
}
330
47
100
AcDbScale
 70
     0
300
6" = 1'-0"
140
6.0
141
12.0
290
     0
  0
SCALE
  5
68
102
{ACAD_REACTORS
330
47
102
}
330
47
100
AcDbScale
 70
     0
300
1'-0" = 1'-0"
140
12.0
141
12.0
290
     0
  0
TABLESTYLE
  5
6A
102
{ACAD_REACTORS
330
69
102
}
102
{ACAD_XDICTIONARY
360
2CB
102
}
330
69
100
AcDbTableStyle
  3
Standard
 70
     0
 71
     0
 40
0.06
 41
0.06
280
     0
281
     0
  7
Standard
140
4.5
170
     2
 62
     0
 63
   257
283
     0
274
    -2
284
     1
 64
     0
275
    -2
285
     1
 65
     0
276
    -2
286
     1
 66
     0
277
    -2
287
     1
 67
     0
278
    -2
288
     1
 68
     0
279
    -2
289
     1
 69
     0
  7
Standard
140
6.0
170
     5
 62
     0
 63
   257
283
     0
274
    -2
284
     1
 64
     0
275
    -2
285
     1
 65
     0
276
    -2
286
     1
 66
     0
277
    -2
287
     1
 67
     0
278
    -2
288
     1
 68
     0
279
    -2
289
     1
 69
     0
  7
Standard
140
4.5
170
     5
 62
     0
 63
   257
283
     0
274
    -2
284
     1
 64
     0
275
    -2
285
     1
 65
     0
276
    -2
286
     1
 66
     0
277
    -2
287
     1
 67
     0
278
    -2
288
     1
 68
     0
279
    -2
289
     1
 69
     0
  0
VISUALSTYLE
  5
2F
102
{ACAD_REACTORS
330
2A
102
}
102
{ACAD_XDICTIONARY
360
29D
102
}
330
2A
100
AcDbVisualStyle
  2
2dWireframe
 70
     4
 71
     0
 72
     2
 73
     0
 90
        0
 40
0.6
 41
30.0
 62
     5
 63
     7
421
 16777215
 74
     1
 91
        4
 64
     7
 65
   257
 75
     1
175
     1
 42
1.0
 92
        0
 66
   257
 43
1.0
 76
     1
 77
     6
 78
     2
 67
     7
 79
     5
170
     0
171
     0
290
     0
174
     0
 93
        1
 44
0.0
173
     0
291
     0
 45
0.0
1001
ACAD
1000
AcDbSavedByObjectVersion
1070
     0
  0
VISUALSTYLE
  5
32
102
{ACAD_REACTORS
330
2A
102
}
102
{ACAD_XDICTIONARY
360
2A3
102
}
330
2A
100
AcDbVisualStyle
  2
Basic
 70
     7
 71
     1
 72
     0
 73
     1
 90
        0
 40
0.6
 41
30.0
 62
     5
 63
     7
421
 16777215
 74
     0
 91
        4
 64
     7
 65
   257
 75
     1
175
     1
 42
1.0
 92
        8
 66
     7
 43
1.0
 76
     1
 77
     6
 78
     2
 67
     7
 79
     5
170
     0
171
     0
290
     0
174
     0
 93
        1
 44
0.0
173
     0
291
     1
 45
0.0
1001
ACAD
1000
AcDbSavedByObjectVersion
1070
     0
  0
VISUALSTYLE
  5
36
102
{ACAD_REACTORS
330
2A
102
}
102
{ACAD_XDICTIONARY
360
2AB
102
}
330
2A
100
AcDbVisualStyle
  2
Brighten
 70
    12
 71
     2
 72
     2
 73
     0
 90
        0
 40
0.6
 41
30.0
 62
     5
 63
     7
421
 16777215
 74
     1
 91
        4
 64
     7
 65
   257
 75
     1
175
     1
 42
1.0
 92
        8
 66
     7
 43
1.0
 76
     1
 77
     6
 78
     2
 67
     7
 79
     5
170
     0
171
     0
290
     0
174
     0
 93
        1
 44
50.0
173
     0
291
     1
 45
0.0
1001
ACAD
1000
AcDbSavedByObjectVersion
1070
     0
  0
VISUALSTYLE
  5
3A
102
{ACAD_REACTORS
330
2A
102
}
102
{ACAD_XDICTIONARY
360
2B3
102
}
330
2A
100
AcDbVisualStyle
  2
ColorChange
 70
    16
 71
     2
 72
     2
 73
     3
 90
        0
 40
0.6
 41
30.0
 62
     5
 63
     8
421
  8421504
 74
     1
 91
        4
 64
     7
 65
   257
 75
     1
175
     1
 42
1.0
 92
        8
 66
     8
424
  8421504
 43
1.0
 76
     1
 77
     6
 78
     2
 67
     7
 79
     5
170
     0
171
     0
290
     0
174
     0
 93
        1
 44
0.0
173
     0
291
     1
 45
0.0
1001
ACAD
1000
AcDbSavedByObjectVersion
1070
     0
  0
VISUALSTYLE
  5
34
102
{ACAD_REACTORS
330
2A
102
}
102
{ACAD_XDICTIONARY
360
2A7
102
}
330
2A
100
AcDbVisualStyle
  2
Conceptual
 70
     9
 71
     3
 72
     2
 73
     0
 90
        0
 40
0.6
 41
30.0
 62
     5
 63
     7
421
 16777215
 74
     2
 91
        2
 64
     7
 65
   257
 75
     1
175
     1
 42
179.0
 92
        8
 66
     7
 43
1.0
 76
     1
 77
     6
 78
     2
 67
     7
 79
     3
170
     0
171
     0
290
     0
174
     0
 93
        1
 44
0.0
173
     0
291
     0
 45
0.0
1001
ACAD
1000
AcDbSavedByObjectVersion
1070
     0
  0
VISUALSTYLE
  5
35
102
{ACAD_REACTORS
330
2A
102
}
102
{ACAD_XDICTIONARY
360
2A9
102
}
330
2A
100
AcDbVisualStyle
  2
Dim
 70
    11
 71
     2
 72
     2
 73
     0
 90
        0
 40
0.6
 41
30.0
 62
     5
 63
     7
421
 16777215
 74
     1
 91
        4
 64
     7
 65
   257
 75
     1
175
     1
 42
1.0
 92
        8
 66
     7
 43
1.0
 76
     1
 77
     6
 78
     2
 67
     7
 79
     5
170
     0
171
     0
290
     0
174
     0
 93
        1
 44
-50.0
173
     0
291
     1
 45
0.0
1001
ACAD
1000
AcDbSavedByObjectVersion
1070
     0
  0
VISUALSTYLE
  5
3D
102
{ACAD_REACTORS
330
2A
102
}
102
{ACAD_XDICTIONARY
360
2B9
102
}
330
2A
100
AcDbVisualStyle
  2
EdgeColorOff
 70
    22
 71
     2
 72
     2
 73
     0
 90
        0
 40
0.6
 41
30.0
 62
     5
 63
     7
421
 16777215
 74
     1
 91
        4
 64
     7
 65
   257
 75
     1
175
     1
 42
1.0
 92
        8
 66
     7
 43
1.0
 76
     1
 77
     6
 78
     2
 67
     7
 79
     5
170
     0
171
     0
290
     0
174
     0
 93
        1
 44
0.0
173
     0
291
     1
 45
0.0
1001
ACAD
1000
AcDbSavedByObjectVersion
1070
     0
  0
VISUALSTYLE
  5
39
102
{ACAD_REACTORS
330
2A
102
}
102
{ACAD_XDICTIONARY
360
2B1
102
}
330
2A
100
AcDbVisualStyle
  2
Facepattern
 70
    15
 71
     2
 72
     2
 73
     0
 90
        0
 40
0.6
 41
30.0
 62
     5
 63
     7
421
 16777215
 74
     1
 91
        4
 64
     7
 65
   257
 75
     1
175
     1
 42
1.0
 92
        8
 66
     7
 43
1.0
 76
     1
 77
     6
 78
     2
 67
     7
 79
     5
170
     0
171
     0
290
     0
174
     0
 93
        1
 44
0.0
173
     0
291
     1
 45
0.0
1001
ACAD
1000
AcDbSavedByObjectVersion
1070
     0
  0
VISUALSTYLE
  5
2B
102
{ACAD_REACTORS
330
2A
102
}
102
{ACAD_XDICTIONARY
360
295
102
}
330
2A
100
AcDbVisualStyle
  2
Flat
 70
     0
 71
     2
 72
     1
 73
     1
 90
        2
 40
0.6
 41
30.0
 62
     5
 63
     7
421
 16777215
 74
     0
 91
        0
 64
     7
 65
   257
 75
     1
175
     1
 42
1.0
 92
        8
 66
     7
 43
1.0
 76
     1
 77
     6
 78
     2
 67
     7
 79
     5
170
     0
171
     0
290
     0
174
     0
 93
       13
 44
0.0
173
     0
291
     1
 45
0.0
1001
ACAD
1000
AcDbSavedByObjectVersion
1070
     0
  0
VISUALSTYLE
  5
2C
102
{ACAD_REACTORS
330
2A
102
}
102
{ACAD_XDICTIONARY
360
297
102
}
330
2A
100
AcDbVisualStyle
  2
FlatWithEdges
 70
     1
 71
     2
 72
     1
 73
     1
 90
        2
 40
0.6
 41
30.0
 62
     5
 63
     7
421
 16777215
 74
     1
 91
        0
 64
     7
 65
   257
 75
     1
175
     1
 42
1.0
 92
        0
 66
   257
 43
1.0
 76
     1
 77
     6
 78
     2
 67
     7
 79
     5
170
     0
171
     0
290
     0
174
     0
 93
       13
 44
0.0
173
     0
291
     1
 45
0.0
1001
ACAD
1000
AcDbSavedByObjectVersion
1070
     0
  0
VISUALSTYLE
  5
2D
102
{ACAD_REACTORS
330
2A
102
}
102
{ACAD_XDICTIONARY
360
299
102
}
330
2A
100
AcDbVisualStyle
  2
Gouraud
 70
     2
 71
     2
 72
     2
 73
     1
 90
        2
 40
0.6
 41
30.0
 62
     5
 63
     7
421
 16777215
 74
     0
 91
        0
 64
     7
 65
   257
 75
     1
175
     1
 42
1.0
 92
        0
 66
     7
 43
1.0
 76
     1
 77
     6
 78
     2
 67
     7
 79
     5
170
     0
171
     0
290
     0
174
     0
 93
       13
 44
0.0
173
     0
291
     1
 45
0.0
1001
ACAD
1000
AcDbSavedByObjectVersion
1070
     0
  0
VISUALSTYLE
  5
2E
102
{ACAD_REACTORS
330
2A
102
}
102
{ACAD_XDICTIONARY
360
29B
102
}
330
2A
100
AcDbVisualStyle
  2
GouraudWithEdges
 70
     3
 71
     2
 72
     2
 73
     1
 90
        2
 40
0.6
 41
30.0
 62
     5
 63
     7
421
 16777215
 74
     1
 91
        0
 64
     7
 65
   257
 75
     1
175
     1
 42
1.0
 92
        0
 66
   257
 43
1.0
 76
     1
 77
     6
 78
     2
 67
     7
 79
     5
170
     0
171
     0
290
     0
174
     0
 93
       13
 44
0.0
173
     0
291
     1
 45
0.0
1001
ACAD
1000
AcDbSavedByObjectVersion
1070
     0
  0
VISUALSTYLE
  5
31
102
{ACAD_REACTORS
330
2A
102
}
102
{ACAD_XDICTIONARY
360
2A1
102
}
330
2A
100
AcDbVisualStyle
  2
Hidden
 70
     6
 71
     1
 72
     2
 73
     2
 90
        0
 40
0.6
 41
30.0
 62
     5
 63
     7
421
 16777215
 74
     2
 91
        2
 64
     7
 65
   257
 75
     2
175
     1
 42
40.0
 92
        0
 66
   257
 43
1.0
 76
     1
 77
     6
 78
     2
 67
     7
 79
     3
170
     0
171
     0
290
     0
174
     0
 93
        1
 44
0.0
173
     0
291
     0
 45
0.0
1001
ACAD
1000
AcDbSavedByObjectVersion
1070
     0
  0
VISUALSTYLE
  5
3B
102
{ACAD_REACTORS
330
2A
102
}
102
{ACAD_XDICTIONARY
360
2B5
102
}
330
2A
100
AcDbVisualStyle
  2
JitterOff
 70
    20
 71
     2
 72
     2
 73
     0
 90
        0
 40
0.6
 41
30.0
 62
     5
 63
     7
421
 16777215
 74
     1
 91
        4
 64
     7
 65
   257
 75
     1
175
     1
 42
1.0
 92
       10
 66
     7
 43
1.0
 76
     1
 77
     6
 78
     2
 67
     7
 79
     5
170
     0
171
     0
290
     0
174
     0
 93
        1
 44
0.0
173
     0
291
     1
 45
0.0
1001
ACAD
1000
AcDbSavedByObjectVersion
1070
     0
  0
VISUALSTYLE
  5
38
102
{ACAD_REACTORS
330
2A
102
}
102
{ACAD_XDICTIONARY
360
2AF
102
}
330
2A
100
AcDbVisualStyle
  2
Linepattern
 70
    14
 71
     2
 72
     2
 73
     0
 90
        0
 40
0.6
 41
30.0
 62
     5
 63
     7
421
 16777215
 74
     1
 91
        4
 64
     7
 65
   257
 75
     7
175
     7
 42
1.0
 92
        8
 66
     7
 43
1.0
 76
     1
 77
     6
 78
     2
 67
     7
 79
     5
170
     0
171
     0
290
     0
174
     0
 93
        1
 44
0.0
173
     0
291
     1
 45
0.0
1001
ACAD
1000
AcDbSavedByObjectVersion
1070
     0
  0
VISUALSTYLE
  5
3C
102
{ACAD_REACTORS
330
2A
102
}
102
{ACAD_XDICTIONARY
360
2B7
102
}
330
2A
100
AcDbVisualStyle
  2
OverhangOff
 70
    21
 71
     2
 72
     2
 73
     0
 90
        0
 40
0.6
 41
30.0
 62
     5
 63
     7
421
 16777215
 74
     1
 91
        4
 64
     7
 65
   257
 75
     1
175
     1
 42
1.0
 92
        9
 66
     7
 43
1.0
 76
     1
 77
     6
 78
     2
 67
     7
 79
     5
170
     0
171
     0
290
     0
174
     0
 93
        1
 44
0.0
173
     0
291
     1
 45
0.0
1001
ACAD
1000
AcDbSavedByObjectVersion
1070
     0
  0
VISUALSTYLE
  5
33
102
{ACAD_REACTORS
330
2A
102
}
102
{ACAD_XDICTIONARY
360
2A5
102
}
330
2A
100
AcDbVisualStyle
  2
Realistic
 70
     8
 71
     2
 72
     3
 73
     0
 90
        2
 40
0.6
 41
30.0
 62
     5
 63
     7
421
 16777215
 74
     0
 91
        0
 64
     7
 65
   257
 75
     1
175
     1
 42
1.0
 92
        8
 66
   257
 43
1.0
 76
     1
 77
     6
 78
     2
 67
     7
 79
     3
170
     0
171
     0
290
     0
174
     0
 93
       13
 44
0.0
173
     0
291
     0
 45
0.0
1001
ACAD
1000
AcDbSavedByObjectVersion
1070
     0
  0
VISUALSTYLE
  5
42
102
{ACAD_REACTORS
330
2A
102
}
102
{ACAD_XDICTIONARY
360
2C3
102
}
330
2A
100
AcDbVisualStyle
  2
Shaded
 70
    27
 71
     2
 72
     2
 73
     1
 90
        2
 40
0.6
 41
30.0
 62
     5
 63
     7
421
 16777215
 74
     0
 91
        4
 64
     7
 65
   257
 75
     1
175
     1
 42
1.0
 92
        8
 66
   257
 43
1.0
 76
     1
 77
     6
 78
     2
 67
     8
425
  7895160
 79
     3
170
     0
171
     0
290
     0
174
     0
 93
        5
 44
0.0
173
     0
291
     0
 45
0.0
1001
ACAD
1000
AcDbSavedByObjectVersion
1070
     0
  0
VISUALSTYLE
  5
41
102
{ACAD_REACTORS
330
2A
102
}
102
{ACAD_XDICTIONARY
360
2C1
102
}
330
2A
100
AcDbVisualStyle
  2
Shaded with edges
 70
    26
 71
     2
 72
     2
 73
     1
 90
        2
 40
0.6
 41
30.0
 62
     5
 63
     7
421
 16777215
 74
     1
 91
       10
 64
     7
 65
   257
 75
     2
175
     1
 42
1.0
 92
        8
 66
   257
 43
1.0
 76
     1
 77
     6
 78
     2
 67
     7
 79
     3
170
     0
171
     0
290
     0
174
     0
 93
        5
 44
0.0
173
     0
291
     0
 45
0.0
1001
ACAD
1000
AcDbSavedByObjectVersion
1070
     0
  0
VISUALSTYLE
  5
3E
102
{ACAD_REACTORS
330
2A
102
}
102
{ACAD_XDICTIONARY
360
2BB
102
}
330
2A
100
AcDbVisualStyle
  2
Shades of Gray
 70
    23
 71
     2
 72
     2
 73
     3
 90
        0
 40
0.6
 41
30.0
 62
     5
 63
     7
421
 16777215
 74
     2
 91
        2
 64
     7
 65
     7
 75
     1
175
     1
 42
40.0
 92
        8
 66
     7
 43
1.0
 76
     1
 77
     6
 78
     2
 67
     7
 79
     3
170
     0
171
     0
290
     0
174
     0
 93
        1
 44
0.0
173
     0
291
     0
 45
0.0
1001
ACAD
1000
AcDbSavedByObjectVersion
1070
     0
  0
VISUALSTYLE
  5
3F
102
{ACAD_REACTORS
330
2A
102
}
102
{ACAD_XDICTIONARY
360
2BD
102
}
330
2A
100
AcDbVisualStyle
  2
Sketchy
 70
    24
 71
     1
 72
     2
 73
     2
 90
        0
 40
0.6
 41
30.0
 62
     5
 63
     7
421
 16777215
 74
     2
 91
        2
 64
     7
 65
     7
 75
     1
175
     1
 42
40.0
 92
       11
 66
     7
 43
1.0
 76
     1
 77
     6
 78
     2
 67
     7
 79
     6
170
     0
171
     0
290
     0
174
     0
 93
        1
 44
0.0
173
     0
291
     0
 45
0.0
1001
ACAD
1000
AcDbSavedByObjectVersion
1070
     0
  0
VISUALSTYLE
  5
37
102
{ACAD_REACTORS
330
2A
102
}
102
{ACAD_XDICTIONARY
360
2AD
102
}
330
2A
100
AcDbVisualStyle
  2
Thicken
 70
    13
 71
     2
 72
     2
 73
     0
 90
        0
 40
0.6
 41
30.0
 62
     5
 63
     7
421
 16777215
 74
     1
 91
        4
 64
     7
 65
   257
 75
     1
175
     1
 42
1.0
 92
       12
 66
     7
 43
1.0
 76
     1
 77
     6
 78
     2
 67
     7
 79
     5
170
     0
171
     0
290
     0
174
     0
 93
        1
 44
0.0
173
     0
291
     1
 45
0.0
1001
ACAD
1000
AcDbSavedByObjectVersion
1070
     0
  0
VISUALSTYLE
  5
30
102
{ACAD_REACTORS
330
2A
102
}
102
{ACAD_XDICTIONARY
360
29F
102
}
330
2A
100
AcDbVisualStyle
  2
Wireframe
 70
     5
 71
     0
 72
     2
 73
     0
 90
        0
 40
0.6
 41
30.0
 62
     5
 63
     7
421
 16777215
 74
     1
 91
        4
 64
     7
 65
   257
 75
     1
175
     1
 42
1.0
 92
        0
 66
   257
 43
1.0
 76
     1
 77
     6
 78
     2
 67
     7
 79
     3
170
     0
171
     0
290
     0
174
     0
 93
        1
 44
0.0
173
     0
291
     0
 45
0.0
1001
ACAD
1000
AcDbSavedByObjectVersion
1070
     0
  0
VISUALSTYLE
  5
40
102
{ACAD_REACTORS
330
2A
102
}
102
{ACAD_XDICTIONARY
360
2BF
102
}
330
2A
100
AcDbVisualStyle
  2
X-Ray
 70
    25
 71
     2
 72
     2
 73
     1
 90
        1
 40
0.5
 41
30.0
 62
     5
 63
     7
421
 16777215
 74
     1
 91
        0
 64
     7
 65
   257
 75
     1
175
     1
 42
1.0
 92
        8
 66
     7
 43
1.0
 76
     1
 77
     6
 78
     2
 67
     7
 79
     3
170
     0
171
     0
290
     0
174
     0
 93
       13
 44
0.0
173
     0
291
     0
 45
0.0
1001
ACAD
1000
AcDbSavedByObjectVersion
1070
     0
  0
DICTIONARYVAR
  5
292
102
{ACAD_REACTORS
330
291
102
}
330
291
100
DictionaryVariables
280
     0
  1
1:1
  0
DICTIONARYVAR
  5
2D6
102
{ACAD_REACTORS
330
291
102
}
330
291
100
DictionaryVariables
280
     0
  1
3.500000
  0
DICTIONARYVAR
  5
2D7
102
{ACAD_REACTORS
330
291
102
}
330
291
100
DictionaryVariables
280
     0
  1
acadiso.lin
  0
DICTIONARYVAR
  5
2D3
102
{ACAD_REACTORS
330
291
102
}
330
291
100
DictionaryVariables
280
     0
  1
Standard
  0
DICTIONARYVAR
  5
2D2
102
{ACAD_REACTORS
330
291
102
}
330
291
100
DictionaryVariables
280
     0
  1
Standard
  0
DICTIONARYVAR
  5
293
102
{ACAD_REACTORS
330
291
102
}
330
291
100
DictionaryVariables
280
     0
  1
1
  0
DICTIONARYVAR
  5
294
102
{ACAD_REACTORS
330
291
102
}
330
291
100
DictionaryVariables
280
     0
  1
2
  0
DICTIONARY
  5
2C7
330
45
100
AcDbDictionary
280
     1
281
     1
  3
ACAD_XREC_ROUNDTRIP
360
2C8
  0
DICTIONARY
  5
2C5
330
44
100
AcDbDictionary
280
     1
281
     1
  3
ACAD_XREC_ROUNDTRIP
360
2C6
  0
DICTIONARY
  5
2C9
330
46
100
AcDbDictionary
280
     1
281
     1
  3
ACAD_XREC_ROUNDTRIP
360
2CA
  0
DICTIONARY
  5
2CF
330
6C
100
AcDbDictionary
280
     1
281
     1
  3
ACAD_XREC_ROUNDTRIP
360
2D0
  0
DICTIONARY
  5
2CB
330
6A
100
AcDbDictionary
280
     1
281
     1
  3
ACAD_ROUNDTRIP_2008_TABLESTYLE_CELLSTYLEMAP
360
2CD
  3
ACAD_XREC_ROUNDTRIP
360
2CC
  0
DICTIONARY
  5
29D
330
2F
100
AcDbDictionary
280
     1
281
     1
  3
ACAD_XREC_ROUNDTRIP
360
29E
  0
DICTIONARY
  5
2A3
330
32
100
AcDbDictionary
280
     1
281
     1
  3
ACAD_XREC_ROUNDTRIP
360
2A4
  0
DICTIONARY
  5
2AB
330
36
100
AcDbDictionary
280
     1
281
     1
  3
ACAD_XREC_ROUNDTRIP
360
2AC
  0
DICTIONARY
  5
2B3
330
3A
100
AcDbDictionary
280
     1
281
     1
  3
ACAD_XREC_ROUNDTRIP
360
2B4
  0
DICTIONARY
  5
2A7
330
34
100
AcDbDictionary
280
     1
281
     1
  3
ACAD_XREC_ROUNDTRIP
360
2A8
  0
DICTIONARY
  5
2A9
330
35
100
AcDbDictionary
280
     1
281
     1
  3
ACAD_XREC_ROUNDTRIP
360
2AA
  0
DICTIONARY
  5
2B9
330
3D
100
AcDbDictionary
280
     1
281
     1
  3
ACAD_XREC_ROUNDTRIP
360
2BA
  0
DICTIONARY
  5
2B1
330
39
100
AcDbDictionary
280
     1
281
     1
  3
ACAD_XREC_ROUNDTRIP
360
2B2
  0
DICTIONARY
  5
295
330
2B
100
AcDbDictionary
280
     1
281
     1
  3
ACAD_XREC_ROUNDTRIP
360
296
  0
DICTIONARY
  5
297
330
2C
100
AcDbDictionary
280
     1
281
     1
  3
ACAD_XREC_ROUNDTRIP
360
298
  0
DICTIONARY
  5
299
330
2D
100
AcDbDictionary
280
     1
281
     1
  3
ACAD_XREC_ROUNDTRIP
360
29A
  0
DICTIONARY
  5
29B
330
2E
100
AcDbDictionary
280
     1
281
     1
  3
ACAD_XREC_ROUNDTRIP
360
29C
  0
DICTIONARY
  5
2A1
330
31
100
AcDbDictionary
280
     1
281
     1
  3
ACAD_XREC_ROUNDTRIP
360
2A2
  0
DICTIONARY
  5
2B5
330
3B
100
AcDbDictionary
280
     1
281
     1
  3
ACAD_XREC_ROUNDTRIP
360
2B6
  0
DICTIONARY
  5
2AF
330
38
100
AcDbDictionary
280
     1
281
     1
  3
ACAD_XREC_ROUNDTRIP
360
2B0
  0
DICTIONARY
  5
2B7
330
3C
100
AcDbDictionary
280
     1
281
     1
  3
ACAD_XREC_ROUNDTRIP
360
2B8
  0
DICTIONARY
  5
2A5
330
33
100
AcDbDictionary
280
     1
281
     1
  3
ACAD_XREC_ROUNDTRIP
360
2A6
  0
DICTIONARY
  5
2C3
330
42
100
AcDbDictionary
280
     1
281
     1
  3
ACAD_XREC_ROUNDTRIP
360
2C4
  0
DICTIONARY
  5
2C1
330
41
100
AcDbDictionary
280
     1
281
     1
  3
ACAD_XREC_ROUNDTRIP
360
2C2
  0
DICTIONARY
  5
2BB
330
3E
100
AcDbDictionary
280
     1
281
     1
  3
ACAD_XREC_ROUNDTRIP
360
2BC
  0
DICTIONARY
  5
2BD
330
3F
100
AcDbDictionary
280
     1
281
     1
  3
ACAD_XREC_ROUNDTRIP
360
2BE
  0
DICTIONARY
  5
2AD
330
37
100
AcDbDictionary
280
     1
281
     1
  3
ACAD_XREC_ROUNDTRIP
360
2AE
  0
DICTIONARY
  5
29F
330
30
100
AcDbDictionary
280
     1
281
     1
  3
ACAD_XREC_ROUNDTRIP
360
2A0
  0
DICTIONARY
  5
2BF
330
40
100
AcDbDictionary
280
     1
281
     1
  3
ACAD_XREC_ROUNDTRIP
360
2C0
  0
XRECORD
  5
2C8
102
{ACAD_REACTORS
330
2C7
102
}
330
2C7
100
AcDbXrecord
280
     1
102
MATERIAL
148
0.0
149
0.0
149
0.0
 93
        0
 94
      127
282
     0
 72
     1
 77
     1
171
     1
175
     1
179
     1
273
     0
  0
XRECORD
  5
2C6
102
{ACAD_REACTORS
330
2C5
102
}
330
2C5
100
AcDbXrecord
280
     1
102
MATERIAL
148
0.0
149
0.0
149
0.0
 93
        0
 94
      127
282
     0
 72
     1
 77
     1
171
     1
175
     1
179
     1
273
     0
  0
XRECORD
  5
2CA
102
{ACAD_REACTORS
330
2C9
102
}
330
2C9
100
AcDbXrecord
280
     1
102
MATERIAL
148
0.0
149
0.0
149
0.0
 93
        0
 94
      127
282
     0
 72
     1
 77
     1
171
     1
175
     1
179
     1
273
     0
  0
XRECORD
  5
2D0
102
{ACAD_REACTORS
330
2CF
102
}
330
2CF
100
AcDbXrecord
280
     1
102
ACAD_ROUNDTRIP_2010_MLEADER_STYLE
  0
CELLSTYLEMAP
  5
2CD
102
{ACAD_REACTORS
330
2CB
102
}
330
2CB
100
AcDbCellStyleMap
 90
        3
300
CELLSTYLE
  1
TABLEFORMAT_BEGIN
 90
        5
170
     1
 91
        0
 92
    32768
 62
   257
 93
        1
300
CONTENTFORMAT
  1
CONTENTFORMAT_BEGIN
 90
        0
 91
        0
 92
        4
 93
        0
300

 40
0.0
140
1.0
 94
        5
 62
     0
340
11
144
6.0
309
CONTENTFORMAT_END
171
     1
301
MARGIN
  1
CELLMARGIN_BEGIN
 40
1.5
 40
1.5
 40
1.5
 40
1.5
 40
1.5
 40
1.5
309
CELLMARGIN_END
 94
        6
 95
        1
302
GRIDFORMAT
  1
GRIDFORMAT_BEGIN
 90
        0
 91
        1
 62
     0
 92
       -2
340
14
 93
        0
 40
0.045
309
GRIDFORMAT_END
 95
        2
302
GRIDFORMAT
  1
GRIDFORMAT_BEGIN
 90
        0
 91
        1
 62
     0
 92
       -2
340
14
 93
        0
 40
0.045
309
GRIDFORMAT_END
 95
        4
302
GRIDFORMAT
  1
GRIDFORMAT_BEGIN
 90
        0
 91
        1
 62
     0
 92
       -2
340
14
 93
        0
 40
0.045
309
GRIDFORMAT_END
 95
        8
302
GRIDFORMAT
  1
GRIDFORMAT_BEGIN
 90
        0
 91
        1
 62
     0
 92
       -2
340
14
 93
        0
 40
0.045
309
GRIDFORMAT_END
 95
       16
302
GRIDFORMAT
  1
GRIDFORMAT_BEGIN
 90
        0
 91
        1
 62
     0
 92
       -2
340
14
 93
        0
 40
0.045
309
GRIDFORMAT_END
 95
       32
302
GRIDFORMAT
  1
GRIDFORMAT_BEGIN
 90
        0
 91
        1
 62
     0
 92
       -2
340
14
 93
        0
 40
0.045
309
GRIDFORMAT_END
309
TABLEFORMAT_END
  1
CELLSTYLE_BEGIN
 90
        1
 91
        1
300
_TITLE
309
CELLSTYLE_END
300
CELLSTYLE
  1
TABLEFORMAT_BEGIN
 90
        5
170
     1
 91
        0
 92
        0
 62
   257
 93
        1
300
CONTENTFORMAT
  1
CONTENTFORMAT_BEGIN
 90
        0
 91
        0
 92
        4
 93
        0
300

 40
0.0
140
1.0
 94
        5
 62
     0
340
11
144
4.5
309
CONTENTFORMAT_END
171
     1
301
MARGIN
  1
CELLMARGIN_BEGIN
 40
1.5
 40
1.5
 40
1.5
 40
1.5
 40
1.5
 40
1.5
309
CELLMARGIN_END
 94
        6
 95
        1
302
GRIDFORMAT
  1
GRIDFORMAT_BEGIN
 90
        0
 91
        1
 62
     0
 92
       -2
340
14
 93
        0
 40
0.045
309
GRIDFORMAT_END
 95
        2
302
GRIDFORMAT
  1
GRIDFORMAT_BEGIN
 90
        0
 91
        1
 62
     0
 92
       -2
340
14
 93
        0
 40
0.045
309
GRIDFORMAT_END
 95
        4
302
GRIDFORMAT
  1
GRIDFORMAT_BEGIN
 90
        0
 91
        1
 62
     0
 92
       -2
340
14
 93
        0
 40
0.045
309
GRIDFORMAT_END
 95
        8
302
GRIDFORMAT
  1
GRIDFORMAT_BEGIN
 90
        0
 91
        1
 62
     0
 92
       -2
340
14
 93
        0
 40
0.045
309
GRIDFORMAT_END
 95
       16
302
GRIDFORMAT
  1
GRIDFORMAT_BEGIN
 90
        0
 91
        1
 62
     0
 92
       -2
340
14
 93
        0
 40
0.045
309
GRIDFORMAT_END
 95
       32
302
GRIDFORMAT
  1
GRIDFORMAT_BEGIN
 90
        0
 91
        1
 62
     0
 92
       -2
340
14
 93
        0
 40
0.045
309
GRIDFORMAT_END
309
TABLEFORMAT_END
  1
CELLSTYLE_BEGIN
 90
        2
 91
        1
300
_HEADER
309
CELLSTYLE_END
300
CELLSTYLE
  1
TABLEFORMAT_BEGIN
 90
        5
170
     1
 91
        0
 92
        0
 62
   257
 93
        1
300
CONTENTFORMAT
  1
CONTENTFORMAT_BEGIN
 90
        0
 91
        0
 92
        4
 93
        0
300

 40
0.0
140
1.0
 94
        2
 62
     0
340
11
144
4.5
309
CONTENTFORMAT_END
171
     1
301
MARGIN
  1
CELLMARGIN_BEGIN
 40
1.5
 40
1.5
 40
1.5
 40
1.5
 40
1.5
 40
1.5
309
CELLMARGIN_END
 94
        6
 95
        1
302
GRIDFORMAT
  1
GRIDFORMAT_BEGIN
 90
        0
 91
        1
 62
     0
 92
       -2
340
14
 93
        0
 40
0.045
309
GRIDFORMAT_END
 95
        2
302
GRIDFORMAT
  1
GRIDFORMAT_BEGIN
 90
        0
 91
        1
 62
     0
 92
       -2
340
14
 93
        0
 40
0.045
309
GRIDFORMAT_END
 95
        4
302
GRIDFORMAT
  1
GRIDFORMAT_BEGIN
 90
        0
 91
        1
 62
     0
 92
       -2
340
14
 93
        0
 40
0.045
309
GRIDFORMAT_END
 95
        8
302
GRIDFORMAT
  1
GRIDFORMAT_BEGIN
 90
        0
 91
        1
 62
     0
 92
       -2
340
14
 93
        0
 40
0.045
309
GRIDFORMAT_END
 95
       16
302
GRIDFORMAT
  1
GRIDFORMAT_BEGIN
 90
        0
 91
        1
 62
     0
 92
       -2
340
14
 93
        0
 40
0.045
309
GRIDFORMAT_END
 95
       32
302
GRIDFORMAT
  1
GRIDFORMAT_BEGIN
 90
        0
 91
        1
 62
     0
 92
       -2
340
14
 93
        0
 40
0.045
309
GRIDFORMAT_END
309
TABLEFORMAT_END
  1
CELLSTYLE_BEGIN
 90
        3
 91
        2
300
_DATA
309
CELLSTYLE_END
  0
XRECORD
  5
2CC
102
{ACAD_REACTORS
330
2CB
102
}
330
2CB
100
AcDbXrecord
280
     1
102
ACAD_ROUNDTRIP_PRE2007_TABLESTYLE
 90
        4
 91
        0
  1

 92
        4
 93
        0
  2

 94
        4
 95
        0
  3

  0
XRECORD
  5
29E
102
{ACAD_REACTORS
330
29D
102
}
330
29D
100
AcDbXrecord
280
     1
102
RTVSPropertyOp0
 70
     1
102
RTVSPropertyOp1
 70
     1
102
RTVSPropertyOp2
 70
     1
102
RTVSPropertyOp3
 70
     1
102
RTVSPropertyOp4
 70
     1
102
RTVSPropertyOp5
 70
     1
102
RTVSPropertyOp6
 70
     1
102
RTVSPropertyOp7
 70
     1
102
RTVSPropertyOp8
 70
     1
102
RTVSPropertyOp9
 70
     1
102
RTVSPropertyOp10
 70
     1
102
RTVSPropertyOp11
 70
     1
102
RTVSPropertyOp12
 70
     1
102
RTVSPropertyOp13
 70
     1
102
RTVSPropertyOp14
 70
     1
102
RTVSPropertyOp15
 70
     1
102
RTVSPropertyOp16
 70
     1
102
RTVSPropertyOp17
 70
     1
102
RTVSPropertyOp18
 70
     1
102
RTVSPropertyOp19
 70
     1
102
RTVSPropertyOp20
 70
     1
102
RTVSPropertyOp21
 70
     1
102
RTVSPropertyOp22
 70
     1
102
RTVSPropertyOp23
 70
     1
102
RTVSPropertyOp24
 70
     1
102
RTVSPropertyOp25
 70
     1
102
RTVSPropertyOp26
 70
     1
102
RTVSPropertyOp27
 70
     1
102
RTVSPropertyOp28
 70
     1
102
RTVSPropertyOp29
 70
     1
102
RTVSPropertyOp30
 70
     1
102
RTVSPropertyOp31
 70
     1
102
RTVSPropertyOp32
 70
     1
102
RTVSPropertyOp33
 70
     1
102
RTVSPropertyOp34
 70
     1
102
RTVSPropertyOp35
 70
     1
102
RTVSPropertyOp36
 70
     1
102
RTVSPropertyOp37
 70
     1
102
RTVSPropertyOp38
 70
     1
102
RTVSPropertyOp39
 70
     1
102
RTVSPropertyOp40
 70
     1
102
RTVSPropertyOp41
 70
     1
102
RTVSPropertyOp42
 70
     1
102
RTVSPropertyOp43
 70
     1
102
RTVSPropertyOp44
 70
     1
102
RTVSPropertyOp45
 70
     1
102
RTVSPropertyOp46
 70
     1
102
RTVSPropertyOp47
 70
     1
102
RTVSPropertyOp48
 70
     1
102
RTVSPropertyOp49
 70
     1
102
RTVSPropertyOp50
 70
     1
102
RTVSPropertyOp51
 70
     0
102
RTVSPropertyOp52
 70
     0
102
RTVSPropertyOp53
 70
     1
102
RTVSPropertyOp54
 70
     1
102
RTVSPropertyOp55
 70
     1
102
RTVSPropertyOp56
 70
     1
102
RTVSPropertyOp57
 70
     1
102
RTVSPost2010Prop28
280
     1
102
RTVSPost2010PropOp28
 70
     1
102
RTVSPost2010Prop29
280
     1
102
RTVSPost2010PropOp29
 70
     1
102
RTVSPost2010Prop30
280
     0
102
RTVSPost2010PropOp30
 70
     1
102
RTVSPost2010Prop31
280
     0
102
RTVSPost2010PropOp31
 70
     1
102
RTVSPost2010Prop32
280
     0
102
RTVSPost2010PropOp32
 70
     1
102
RTVSPost2010Prop33
280
     0
102
RTVSPost2010PropOp33
 70
     1
102
RTVSPost2010Prop34
280
     0
102
RTVSPost2010PropOp34
 70
     1
102
RTVSPost2010Prop35
280
     0
102
RTVSPost2010PropOp35
 70
     1
102
RTVSPost2010Prop36
280
     0
102
RTVSPost2010PropOp36
 70
     1
102
RTVSPost2010Prop37
 90
       50
102
RTVSPost2010PropOp37
 70
     1
102
RTVSPost2010Prop38
140
0.0
102
RTVSPost2010PropOp38
 70
     1
102
RTVSPost2010Prop39
140
1.0
102
RTVSPost2010PropOp39
 70
     1
102
RTVSPost2010Prop40
 90
        0
102
RTVSPost2010PropOp40
 70
     1
102
RTVSPost2010Prop41ColorIndex
 90
       18
102
RTVSPost2010Prop41ColorRGB
 90
        0
102
RTVSPost2010PropOp41
 70
     1
102
RTVSPost2010Prop42
 90
       50
102
RTVSPost2010PropOp42
 70
     1
102
RTVSPost2010Prop43
 90
        3
102
RTVSPost2010PropOp43
 70
     1
102
RTVSPost2010Prop44ColorIndex
 90
        5
102
RTVSPost2010Prop44ColorRGB
 90
      255
102
RTVSPost2010PropOp44
 70
     1
102
RTVSPost2010Prop45
280
     0
102
RTVSPost2010PropOp45
 70
     1
102
RTVSPost2010Prop46
 90
       50
102
RTVSPost2010PropOp46
 70
     1
102
RTVSPost2010Prop47
 90
       50
102
RTVSPost2010PropOp47
 70
     1
102
RTVSPost2010Prop48
 90
       50
102
RTVSPost2010PropOp48
 70
     1
102
RTVSPost2010Prop49
280
     0
102
RTVSPost2010PropOp49
 70
     1
102
RTVSPost2010Prop50
 90
       50
102
RTVSPost2010PropOp50
 70
     1
102
RTVSPost2010Prop51ColorIndex
 90
      256
102
RTVSPost2010Prop51ColorRGB
 90
-16777216
102
RTVSPost2010PropOp51
 70
     0
102
RTVSPost2010Prop52
140
1.0
102
RTVSPost2010PropOp52
 70
     0
102
RTVSPost2010Prop53
 90
        2
102
RTVSPost2010PropOp53
 70
     1
102
RTVSPost2010Prop54
  1
strokes_ogs.tif
102
RTVSPost2010PropOp54
 70
     1
102
RTVSPost2010Prop55
280
     0
102
RTVSPost2010PropOp55
 70
     1
102
RTVSPost2010Prop56
140
1.0
102
RTVSPost2010PropOp56
 70
     1
102
RTVSPost2010Prop57
140
1.0
102
RTVSPost2010PropOp57
 70
     1
  0
XRECORD
  5
2A4
102
{ACAD_REACTORS
330
2A3
102
}
330
2A3
100
AcDbXrecord
280
     1
102
RTVSPropertyOp0
 70
     1
102
RTVSPropertyOp1
 70
     1
102
RTVSPropertyOp2
 70
     1
102
RTVSPropertyOp3
 70
     1
102
RTVSPropertyOp4
 70
     1
102
RTVSPropertyOp5
 70
     1
102
RTVSPropertyOp6
 70
     1
102
RTVSPropertyOp7
 70
     1
102
RTVSPropertyOp8
 70
     1
102
RTVSPropertyOp9
 70
     1
102
RTVSPropertyOp10
 70
     1
102
RTVSPropertyOp11
 70
     1
102
RTVSPropertyOp12
 70
     1
102
RTVSPropertyOp13
 70
     1
102
RTVSPropertyOp14
 70
     1
102
RTVSPropertyOp15
 70
     1
102
RTVSPropertyOp16
 70
     1
102
RTVSPropertyOp17
 70
     1
102
RTVSPropertyOp18
 70
     1
102
RTVSPropertyOp19
 70
     1
102
RTVSPropertyOp20
 70
     1
102
RTVSPropertyOp21
 70
     1
102
RTVSPropertyOp22
 70
     1
102
RTVSPropertyOp23
 70
     1
102
RTVSPropertyOp24
 70
     1
102
RTVSPropertyOp25
 70
     1
102
RTVSPropertyOp26
 70
     1
102
RTVSPropertyOp27
 70
     1
102
RTVSPropertyOp28
 70
     1
102
RTVSPropertyOp29
 70
     1
102
RTVSPropertyOp30
 70
     1
102
RTVSPropertyOp31
 70
     1
102
RTVSPropertyOp32
 70
     1
102
RTVSPropertyOp33
 70
     1
102
RTVSPropertyOp34
 70
     1
102
RTVSPropertyOp35
 70
     1
102
RTVSPropertyOp36
 70
     1
102
RTVSPropertyOp37
 70
     1
102
RTVSPropertyOp38
 70
     1
102
RTVSPropertyOp39
 70
     1
102
RTVSPropertyOp40
 70
     1
102
RTVSPropertyOp41
 70
     1
102
RTVSPropertyOp42
 70
     1
102
RTVSPropertyOp43
 70
     1
102
RTVSPropertyOp44
 70
     1
102
RTVSPropertyOp45
 70
     1
102
RTVSPropertyOp46
 70
     1
102
RTVSPropertyOp47
 70
     1
102
RTVSPropertyOp48
 70
     1
102
RTVSPropertyOp49
 70
     1
102
RTVSPropertyOp50
 70
     1
102
RTVSPropertyOp51
 70
     0
102
RTVSPropertyOp52
 70
     0
102
RTVSPropertyOp53
 70
     1
102
RTVSPropertyOp54
 70
     1
102
RTVSPropertyOp55
 70
     1
102
RTVSPropertyOp56
 70
     1
102
RTVSPropertyOp57
 70
     1
102
RTVSPost2010Prop28
280
     0
102
RTVSPost2010PropOp28
 70
     1
102
RTVSPost2010Prop29
280
     1
102
RTVSPost2010PropOp29
 70
     1
102
RTVSPost2010Prop30
280
     1
102
RTVSPost2010PropOp30
 70
     1
102
RTVSPost2010Prop31
280
     0
102
RTVSPost2010PropOp31
 70
     1
102
RTVSPost2010Prop32
280
     0
102
RTVSPost2010PropOp32
 70
     1
102
RTVSPost2010Prop33
280
     0
102
RTVSPost2010PropOp33
 70
     1
102
RTVSPost2010Prop34
280
     0
102
RTVSPost2010PropOp34
 70
     1
102
RTVSPost2010Prop35
280
     0
102
RTVSPost2010PropOp35
 70
     1
102
RTVSPost2010Prop36
280
     0
102
RTVSPost2010PropOp36
 70
     1
102
RTVSPost2010Prop37
 90
       50
102
RTVSPost2010PropOp37
 70
     1
102
RTVSPost2010Prop38
140
0.0
102
RTVSPost2010PropOp38
 70
     1
102
RTVSPost2010Prop39
140
1.0
102
RTVSPost2010PropOp39
 70
     1
102
RTVSPost2010Prop40
 90
        0
102
RTVSPost2010PropOp40
 70
     1
102
RTVSPost2010Prop41ColorIndex
 90
       18
102
RTVSPost2010Prop41ColorRGB
 90
        0
102
RTVSPost2010PropOp41
 70
     1
102
RTVSPost2010Prop42
 90
       50
102
RTVSPost2010PropOp42
 70
     1
102
RTVSPost2010Prop43
 90
        3
102
RTVSPost2010PropOp43
 70
     1
102
RTVSPost2010Prop44ColorIndex
 90
        5
102
RTVSPost2010Prop44ColorRGB
 90
      255
102
RTVSPost2010PropOp44
 70
     1
102
RTVSPost2010Prop45
280
     0
102
RTVSPost2010PropOp45
 70
     1
102
RTVSPost2010Prop46
 90
       50
102
RTVSPost2010PropOp46
 70
     1
102
RTVSPost2010Prop47
 90
       50
102
RTVSPost2010PropOp47
 70
     1
102
RTVSPost2010Prop48
 90
       50
102
RTVSPost2010PropOp48
 70
     1
102
RTVSPost2010Prop49
280
     0
102
RTVSPost2010PropOp49
 70
     1
102
RTVSPost2010Prop50
 90
       50
102
RTVSPost2010PropOp50
 70
     1
102
RTVSPost2010Prop51ColorIndex
 90
      256
102
RTVSPost2010Prop51ColorRGB
 90
-16777216
102
RTVSPost2010PropOp51
 70
     0
102
RTVSPost2010Prop52
140
1.0
102
RTVSPost2010PropOp52
 70
     0
102
RTVSPost2010Prop53
 90
        2
102
RTVSPost2010PropOp53
 70
     1
102
RTVSPost2010Prop54
  1
strokes_ogs.tif
102
RTVSPost2010PropOp54
 70
     1
102
RTVSPost2010Prop55
280
     0
102
RTVSPost2010PropOp55
 70
     1
102
RTVSPost2010Prop56
140
1.0
102
RTVSPost2010PropOp56
 70
     1
102
RTVSPost2010Prop57
140
1.0
102
RTVSPost2010PropOp57
 70
     1
  0
XRECORD
  5
2AC
102
{ACAD_REACTORS
330
2AB
102
}
330
2AB
100
AcDbXrecord
280
     1
102
RTVSPropertyOp0
 70
     1
102
RTVSPropertyOp1
 70
     1
102
RTVSPropertyOp2
 70
     1
102
RTVSPropertyOp3
 70
     1
102
RTVSPropertyOp4
 70
     1
102
RTVSPropertyOp5
 70
     1
102
RTVSPropertyOp6
 70
     1
102
RTVSPropertyOp7
 70
     1
102
RTVSPropertyOp8
 70
     1
102
RTVSPropertyOp9
 70
     1
102
RTVSPropertyOp10
 70
     1
102
RTVSPropertyOp11
 70
     1
102
RTVSPropertyOp12
 70
     1
102
RTVSPropertyOp13
 70
     1
102
RTVSPropertyOp14
 70
     1
102
RTVSPropertyOp15
 70
     1
102
RTVSPropertyOp16
 70
     1
102
RTVSPropertyOp17
 70
     1
102
RTVSPropertyOp18
 70
     1
102
RTVSPropertyOp19
 70
     1
102
RTVSPropertyOp20
 70
     1
102
RTVSPropertyOp21
 70
     1
102
RTVSPropertyOp22
 70
     1
102
RTVSPropertyOp23
 70
     1
102
RTVSPropertyOp24
 70
     1
102
RTVSPropertyOp25
 70
     1
102
RTVSPropertyOp26
 70
     1
102
RTVSPropertyOp27
 70
     1
102
RTVSPropertyOp28
 70
     1
102
RTVSPropertyOp29
 70
     1
102
RTVSPropertyOp30
 70
     1
102
RTVSPropertyOp31
 70
     1
102
RTVSPropertyOp32
 70
     1
102
RTVSPropertyOp33
 70
     1
102
RTVSPropertyOp34
 70
     1
102
RTVSPropertyOp35
 70
     1
102
RTVSPropertyOp36
 70
     1
102
RTVSPropertyOp37
 70
     1
102
RTVSPropertyOp38
 70
     1
102
RTVSPropertyOp39
 70
     1
102
RTVSPropertyOp40
 70
     1
102
RTVSPropertyOp41
 70
     1
102
RTVSPropertyOp42
 70
     1
102
RTVSPropertyOp43
 70
     1
102
RTVSPropertyOp44
 70
     1
102
RTVSPropertyOp45
 70
     1
102
RTVSPropertyOp46
 70
     1
102
RTVSPropertyOp47
 70
     1
102
RTVSPropertyOp48
 70
     1
102
RTVSPropertyOp49
 70
     1
102
RTVSPropertyOp50
 70
     1
102
RTVSPropertyOp51
 70
     0
102
RTVSPropertyOp52
 70
     0
102
RTVSPropertyOp53
 70
     1
102
RTVSPropertyOp54
 70
     1
102
RTVSPropertyOp55
 70
     1
102
RTVSPropertyOp56
 70
     1
102
RTVSPropertyOp57
 70
     1
102
RTVSPost2010Prop28
280
     0
102
RTVSPost2010PropOp28
 70
     1
102
RTVSPost2010Prop29
280
     1
102
RTVSPost2010PropOp29
 70
     1
102
RTVSPost2010Prop30
280
     1
102
RTVSPost2010PropOp30
 70
     1
102
RTVSPost2010Prop31
280
     0
102
RTVSPost2010PropOp31
 70
     1
102
RTVSPost2010Prop32
280
     0
102
RTVSPost2010PropOp32
 70
     1
102
RTVSPost2010Prop33
280
     0
102
RTVSPost2010PropOp33
 70
     1
102
RTVSPost2010Prop34
280
     0
102
RTVSPost2010PropOp34
 70
     1
102
RTVSPost2010Prop35
280
     0
102
RTVSPost2010PropOp35
 70
     1
102
RTVSPost2010Prop36
280
     0
102
RTVSPost2010PropOp36
 70
     1
102
RTVSPost2010Prop37
 90
       50
102
RTVSPost2010PropOp37
 70
     1
102
RTVSPost2010Prop38
140
0.0
102
RTVSPost2010PropOp38
 70
     1
102
RTVSPost2010Prop39
140
1.0
102
RTVSPost2010PropOp39
 70
     1
102
RTVSPost2010Prop40
 90
        0
102
RTVSPost2010PropOp40
 70
     1
102
RTVSPost2010Prop41ColorIndex
 90
       18
102
RTVSPost2010Prop41ColorRGB
 90
        0
102
RTVSPost2010PropOp41
 70
     1
102
RTVSPost2010Prop42
 90
       50
102
RTVSPost2010PropOp42
 70
     1
102
RTVSPost2010Prop43
 90
        3
102
RTVSPost2010PropOp43
 70
     1
102
RTVSPost2010Prop44ColorIndex
 90
        5
102
RTVSPost2010Prop44ColorRGB
 90
      255
102
RTVSPost2010PropOp44
 70
     1
102
RTVSPost2010Prop45
280
     0
102
RTVSPost2010PropOp45
 70
     1
102
RTVSPost2010Prop46
 90
       50
102
RTVSPost2010PropOp46
 70
     1
102
RTVSPost2010Prop47
 90
       50
102
RTVSPost2010PropOp47
 70
     1
102
RTVSPost2010Prop48
 90
       50
102
RTVSPost2010PropOp48
 70
     1
102
RTVSPost2010Prop49
280
     0
102
RTVSPost2010PropOp49
 70
     1
102
RTVSPost2010Prop50
 90
       50
102
RTVSPost2010PropOp50
 70
     1
102
RTVSPost2010Prop51ColorIndex
 90
      256
102
RTVSPost2010Prop51ColorRGB
 90
-16777216
102
RTVSPost2010PropOp51
 70
     0
102
RTVSPost2010Prop52
140
1.0
102
RTVSPost2010PropOp52
 70
     0
102
RTVSPost2010Prop53
 90
        2
102
RTVSPost2010PropOp53
 70
     1
102
RTVSPost2010Prop54
  1
strokes_ogs.tif
102
RTVSPost2010PropOp54
 70
     1
102
RTVSPost2010Prop55
280
     0
102
RTVSPost2010PropOp55
 70
     1
102
RTVSPost2010Prop56
140
1.0
102
RTVSPost2010PropOp56
 70
     1
102
RTVSPost2010Prop57
140
1.0
102
RTVSPost2010PropOp57
 70
     1
  0
XRECORD
  5
2B4
102
{ACAD_REACTORS
330
2B3
102
}
330
2B3
100
AcDbXrecord
280
     1
102
RTVSPropertyOp0
 70
     1
102
RTVSPropertyOp1
 70
     1
102
RTVSPropertyOp2
 70
     1
102
RTVSPropertyOp3
 70
     1
102
RTVSPropertyOp4
 70
     1
102
RTVSPropertyOp5
 70
     1
102
RTVSPropertyOp6
 70
     1
102
RTVSPropertyOp7
 70
     1
102
RTVSPropertyOp8
 70
     1
102
RTVSPropertyOp9
 70
     1
102
RTVSPropertyOp10
 70
     1
102
RTVSPropertyOp11
 70
     1
102
RTVSPropertyOp12
 70
     1
102
RTVSPropertyOp13
 70
     1
102
RTVSPropertyOp14
 70
     1
102
RTVSPropertyOp15
 70
     1
102
RTVSPropertyOp16
 70
     1
102
RTVSPropertyOp17
 70
     1
102
RTVSPropertyOp18
 70
     1
102
RTVSPropertyOp19
 70
     1
102
RTVSPropertyOp20
 70
     1
102
RTVSPropertyOp21
 70
     1
102
RTVSPropertyOp22
 70
     1
102
RTVSPropertyOp23
 70
     1
102
RTVSPropertyOp24
 70
     1
102
RTVSPropertyOp25
 70
     1
102
RTVSPropertyOp26
 70
     1
102
RTVSPropertyOp27
 70
     1
102
RTVSPropertyOp28
 70
     1
102
RTVSPropertyOp29
 70
     1
102
RTVSPropertyOp30
 70
     1
102
RTVSPropertyOp31
 70
     1
102
RTVSPropertyOp32
 70
     1
102
RTVSPropertyOp33
 70
     1
102
RTVSPropertyOp34
 70
     1
102
RTVSPropertyOp35
 70
     1
102
RTVSPropertyOp36
 70
     1
102
RTVSPropertyOp37
 70
     1
102
RTVSPropertyOp38
 70
     1
102
RTVSPropertyOp39
 70
     1
102
RTVSPropertyOp40
 70
     1
102
RTVSPropertyOp41
 70
     1
102
RTVSPropertyOp42
 70
     1
102
RTVSPropertyOp43
 70
     1
102
RTVSPropertyOp44
 70
     1
102
RTVSPropertyOp45
 70
     1
102
RTVSPropertyOp46
 70
     1
102
RTVSPropertyOp47
 70
     1
102
RTVSPropertyOp48
 70
     1
102
RTVSPropertyOp49
 70
     1
102
RTVSPropertyOp50
 70
     1
102
RTVSPropertyOp51
 70
     0
102
RTVSPropertyOp52
 70
     0
102
RTVSPropertyOp53
 70
     1
102
RTVSPropertyOp54
 70
     1
102
RTVSPropertyOp55
 70
     1
102
RTVSPropertyOp56
 70
     1
102
RTVSPropertyOp57
 70
     1
102
RTVSPost2010Prop28
280
     0
102
RTVSPost2010PropOp28
 70
     1
102
RTVSPost2010Prop29
280
     1
102
RTVSPost2010PropOp29
 70
     1
102
RTVSPost2010Prop30
280
     1
102
RTVSPost2010PropOp30
 70
     1
102
RTVSPost2010Prop31
280
     0
102
RTVSPost2010PropOp31
 70
     1
102
RTVSPost2010Prop32
280
     0
102
RTVSPost2010PropOp32
 70
     1
102
RTVSPost2010Prop33
280
     0
102
RTVSPost2010PropOp33
 70
     1
102
RTVSPost2010Prop34
280
     0
102
RTVSPost2010PropOp34
 70
     1
102
RTVSPost2010Prop35
280
     0
102
RTVSPost2010PropOp35
 70
     1
102
RTVSPost2010Prop36
280
     0
102
RTVSPost2010PropOp36
 70
     1
102
RTVSPost2010Prop37
 90
       50
102
RTVSPost2010PropOp37
 70
     1
102
RTVSPost2010Prop38
140
0.0
102
RTVSPost2010PropOp38
 70
     1
102
RTVSPost2010Prop39
140
1.0
102
RTVSPost2010PropOp39
 70
     1
102
RTVSPost2010Prop40
 90
        0
102
RTVSPost2010PropOp40
 70
     1
102
RTVSPost2010Prop41ColorIndex
 90
       18
102
RTVSPost2010Prop41ColorRGB
 90
        0
102
RTVSPost2010PropOp41
 70
     1
102
RTVSPost2010Prop42
 90
       50
102
RTVSPost2010PropOp42
 70
     1
102
RTVSPost2010Prop43
 90
        3
102
RTVSPost2010PropOp43
 70
     1
102
RTVSPost2010Prop44ColorIndex
 90
        5
102
RTVSPost2010Prop44ColorRGB
 90
      255
102
RTVSPost2010PropOp44
 70
     1
102
RTVSPost2010Prop45
280
     0
102
RTVSPost2010PropOp45
 70
     1
102
RTVSPost2010Prop46
 90
       50
102
RTVSPost2010PropOp46
 70
     1
102
RTVSPost2010Prop47
 90
       50
102
RTVSPost2010PropOp47
 70
     1
102
RTVSPost2010Prop48
 90
       50
102
RTVSPost2010PropOp48
 70
     1
102
RTVSPost2010Prop49
280
     0
102
RTVSPost2010PropOp49
 70
     1
102
RTVSPost2010Prop50
 90
       50
102
RTVSPost2010PropOp50
 70
     1
102
RTVSPost2010Prop51ColorIndex
 90
      256
102
RTVSPost2010Prop51ColorRGB
 90
-16777216
102
RTVSPost2010PropOp51
 70
     0
102
RTVSPost2010Prop52
140
1.0
102
RTVSPost2010PropOp52
 70
     0
102
RTVSPost2010Prop53
 90
        2
102
RTVSPost2010PropOp53
 70
     1
102
RTVSPost2010Prop54
  1
strokes_ogs.tif
102
RTVSPost2010PropOp54
 70
     1
102
RTVSPost2010Prop55
280
     0
102
RTVSPost2010PropOp55
 70
     1
102
RTVSPost2010Prop56
140
1.0
102
RTVSPost2010PropOp56
 70
     1
102
RTVSPost2010Prop57
140
1.0
102
RTVSPost2010PropOp57
 70
     1
  0
XRECORD
  5
2A8
102
{ACAD_REACTORS
330
2A7
102
}
330
2A7
100
AcDbXrecord
280
     1
102
RTVSPropertyOp0
 70
     1
102
RTVSPropertyOp1
 70
     1
102
RTVSPropertyOp2
 70
     1
102
RTVSPropertyOp3
 70
     1
102
RTVSPropertyOp4
 70
     1
102
RTVSPropertyOp5
 70
     1
102
RTVSPropertyOp6
 70
     1
102
RTVSPropertyOp7
 70
     1
102
RTVSPropertyOp8
 70
     1
102
RTVSPropertyOp9
 70
     1
102
RTVSPropertyOp10
 70
     1
102
RTVSPropertyOp11
 70
     1
102
RTVSPropertyOp12
 70
     1
102
RTVSPropertyOp13
 70
     1
102
RTVSPropertyOp14
 70
     1
102
RTVSPropertyOp15
 70
     1
102
RTVSPropertyOp16
 70
     1
102
RTVSPropertyOp17
 70
     1
102
RTVSPropertyOp18
 70
     1
102
RTVSPropertyOp19
 70
     1
102
RTVSPropertyOp20
 70
     1
102
RTVSPropertyOp21
 70
     1
102
RTVSPropertyOp22
 70
     1
102
RTVSPropertyOp23
 70
     1
102
RTVSPropertyOp24
 70
     1
102
RTVSPropertyOp25
 70
     1
102
RTVSPropertyOp26
 70
     1
102
RTVSPropertyOp27
 70
     1
102
RTVSPropertyOp28
 70
     1
102
RTVSPropertyOp29
 70
     1
102
RTVSPropertyOp30
 70
     1
102
RTVSPropertyOp31
 70
     1
102
RTVSPropertyOp32
 70
     1
102
RTVSPropertyOp33
 70
     1
102
RTVSPropertyOp34
 70
     1
102
RTVSPropertyOp35
 70
     1
102
RTVSPropertyOp36
 70
     1
102
RTVSPropertyOp37
 70
     1
102
RTVSPropertyOp38
 70
     1
102
RTVSPropertyOp39
 70
     1
102
RTVSPropertyOp40
 70
     1
102
RTVSPropertyOp41
 70
     1
102
RTVSPropertyOp42
 70
     1
102
RTVSPropertyOp43
 70
     1
102
RTVSPropertyOp44
 70
     1
102
RTVSPropertyOp45
 70
     1
102
RTVSPropertyOp46
 70
     1
102
RTVSPropertyOp47
 70
     1
102
RTVSPropertyOp48
 70
     1
102
RTVSPropertyOp49
 70
     1
102
RTVSPropertyOp50
 70
     1
102
RTVSPropertyOp51
 70
     0
102
RTVSPropertyOp52
 70
     0
102
RTVSPropertyOp53
 70
     1
102
RTVSPropertyOp54
 70
     1
102
RTVSPropertyOp55
 70
     1
102
RTVSPropertyOp56
 70
     1
102
RTVSPropertyOp57
 70
     1
102
RTVSPost2010Prop28
280
     0
102
RTVSPost2010PropOp28
 70
     1
102
RTVSPost2010Prop29
280
     1
102
RTVSPost2010PropOp29
 70
     1
102
RTVSPost2010Prop30
280
     1
102
RTVSPost2010PropOp30
 70
     1
102
RTVSPost2010Prop31
280
     0
102
RTVSPost2010PropOp31
 70
     1
102
RTVSPost2010Prop32
280
     0
102
RTVSPost2010PropOp32
 70
     1
102
RTVSPost2010Prop33
280
     0
102
RTVSPost2010PropOp33
 70
     1
102
RTVSPost2010Prop34
280
     0
102
RTVSPost2010PropOp34
 70
     1
102
RTVSPost2010Prop35
280
     0
102
RTVSPost2010PropOp35
 70
     1
102
RTVSPost2010Prop36
280
     0
102
RTVSPost2010PropOp36
 70
     1
102
RTVSPost2010Prop37
 90
       50
102
RTVSPost2010PropOp37
 70
     1
102
RTVSPost2010Prop38
140
0.0
102
RTVSPost2010PropOp38
 70
     1
102
RTVSPost2010Prop39
140
1.0
102
RTVSPost2010PropOp39
 70
     1
102
RTVSPost2010Prop40
 90
        0
102
RTVSPost2010PropOp40
 70
     1
102
RTVSPost2010Prop41ColorIndex
 90
       18
102
RTVSPost2010Prop41ColorRGB
 90
        0
102
RTVSPost2010PropOp41
 70
     1
102
RTVSPost2010Prop42
 90
       50
102
RTVSPost2010PropOp42
 70
     1
102
RTVSPost2010Prop43
 90
        3
102
RTVSPost2010PropOp43
 70
     1
102
RTVSPost2010Prop44ColorIndex
 90
        5
102
RTVSPost2010Prop44ColorRGB
 90
      255
102
RTVSPost2010PropOp44
 70
     1
102
RTVSPost2010Prop45
280
     0
102
RTVSPost2010PropOp45
 70
     1
102
RTVSPost2010Prop46
 90
       50
102
RTVSPost2010PropOp46
 70
     1
102
RTVSPost2010Prop47
 90
       50
102
RTVSPost2010PropOp47
 70
     1
102
RTVSPost2010Prop48
 90
       50
102
RTVSPost2010PropOp48
 70
     1
102
RTVSPost2010Prop49
280
     0
102
RTVSPost2010PropOp49
 70
     1
102
RTVSPost2010Prop50
 90
       50
102
RTVSPost2010PropOp50
 70
     1
102
RTVSPost2010Prop51ColorIndex
 90
      256
102
RTVSPost2010Prop51ColorRGB
 90
-16777216
102
RTVSPost2010PropOp51
 70
     0
102
RTVSPost2010Prop52
140
1.0
102
RTVSPost2010PropOp52
 70
     0
102
RTVSPost2010Prop53
 90
        2
102
RTVSPost2010PropOp53
 70
     1
102
RTVSPost2010Prop54
  1
strokes_ogs.tif
102
RTVSPost2010PropOp54
 70
     1
102
RTVSPost2010Prop55
280
     0
102
RTVSPost2010PropOp55
 70
     1
102
RTVSPost2010Prop56
140
1.0
102
RTVSPost2010PropOp56
 70
     1
102
RTVSPost2010Prop57
140
1.0
102
RTVSPost2010PropOp57
 70
     1
  0
XRECORD
  5
2AA
102
{ACAD_REACTORS
330
2A9
102
}
330
2A9
100
AcDbXrecord
280
     1
102
RTVSPropertyOp0
 70
     1
102
RTVSPropertyOp1
 70
     1
102
RTVSPropertyOp2
 70
     1
102
RTVSPropertyOp3
 70
     1
102
RTVSPropertyOp4
 70
     1
102
RTVSPropertyOp5
 70
     1
102
RTVSPropertyOp6
 70
     1
102
RTVSPropertyOp7
 70
     1
102
RTVSPropertyOp8
 70
     1
102
RTVSPropertyOp9
 70
     1
102
RTVSPropertyOp10
 70
     1
102
RTVSPropertyOp11
 70
     1
102
RTVSPropertyOp12
 70
     1
102
RTVSPropertyOp13
 70
     1
102
RTVSPropertyOp14
 70
     1
102
RTVSPropertyOp15
 70
     1
102
RTVSPropertyOp16
 70
     1
102
RTVSPropertyOp17
 70
     1
102
RTVSPropertyOp18
 70
     1
102
RTVSPropertyOp19
 70
     1
102
RTVSPropertyOp20
 70
     1
102
RTVSPropertyOp21
 70
     1
102
RTVSPropertyOp22
 70
     1
102
RTVSPropertyOp23
 70
     1
102
RTVSPropertyOp24
 70
     1
102
RTVSPropertyOp25
 70
     1
102
RTVSPropertyOp26
 70
     1
102
RTVSPropertyOp27
 70
     1
102
RTVSPropertyOp28
 70
     1
102
RTVSPropertyOp29
 70
     1
102
RTVSPropertyOp30
 70
     1
102
RTVSPropertyOp31
 70
     1
102
RTVSPropertyOp32
 70
     1
102
RTVSPropertyOp33
 70
     1
102
RTVSPropertyOp34
 70
     1
102
RTVSPropertyOp35
 70
     1
102
RTVSPropertyOp36
 70
     1
102
RTVSPropertyOp37
 70
     1
102
RTVSPropertyOp38
 70
     1
102
RTVSPropertyOp39
 70
     1
102
RTVSPropertyOp40
 70
     1
102
RTVSPropertyOp41
 70
     1
102
RTVSPropertyOp42
 70
     1
102
RTVSPropertyOp43
 70
     1
102
RTVSPropertyOp44
 70
     1
102
RTVSPropertyOp45
 70
     1
102
RTVSPropertyOp46
 70
     1
102
RTVSPropertyOp47
 70
     1
102
RTVSPropertyOp48
 70
     1
102
RTVSPropertyOp49
 70
     1
102
RTVSPropertyOp50
 70
     1
102
RTVSPropertyOp51
 70
     0
102
RTVSPropertyOp52
 70
     0
102
RTVSPropertyOp53
 70
     1
102
RTVSPropertyOp54
 70
     1
102
RTVSPropertyOp55
 70
     1
102
RTVSPropertyOp56
 70
     1
102
RTVSPropertyOp57
 70
     1
102
RTVSPost2010Prop28
280
     0
102
RTVSPost2010PropOp28
 70
     1
102
RTVSPost2010Prop29
280
     1
102
RTVSPost2010PropOp29
 70
     1
102
RTVSPost2010Prop30
280
     1
102
RTVSPost2010PropOp30
 70
     1
102
RTVSPost2010Prop31
280
     0
102
RTVSPost2010PropOp31
 70
     1
102
RTVSPost2010Prop32
280
     0
102
RTVSPost2010PropOp32
 70
     1
102
RTVSPost2010Prop33
280
     0
102
RTVSPost2010PropOp33
 70
     1
102
RTVSPost2010Prop34
280
     0
102
RTVSPost2010PropOp34
 70
     1
102
RTVSPost2010Prop35
280
     0
102
RTVSPost2010PropOp35
 70
     1
102
RTVSPost2010Prop36
280
     0
102
RTVSPost2010PropOp36
 70
     1
102
RTVSPost2010Prop37
 90
       50
102
RTVSPost2010PropOp37
 70
     1
102
RTVSPost2010Prop38
140
0.0
102
RTVSPost2010PropOp38
 70
     1
102
RTVSPost2010Prop39
140
1.0
102
RTVSPost2010PropOp39
 70
     1
102
RTVSPost2010Prop40
 90
        0
102
RTVSPost2010PropOp40
 70
     1
102
RTVSPost2010Prop41ColorIndex
 90
       18
102
RTVSPost2010Prop41ColorRGB
 90
        0
102
RTVSPost2010PropOp41
 70
     1
102
RTVSPost2010Prop42
 90
       50
102
RTVSPost2010PropOp42
 70
     1
102
RTVSPost2010Prop43
 90
        3
102
RTVSPost2010PropOp43
 70
     1
102
RTVSPost2010Prop44ColorIndex
 90
        5
102
RTVSPost2010Prop44ColorRGB
 90
      255
102
RTVSPost2010PropOp44
 70
     1
102
RTVSPost2010Prop45
280
     0
102
RTVSPost2010PropOp45
 70
     1
102
RTVSPost2010Prop46
 90
       50
102
RTVSPost2010PropOp46
 70
     1
102
RTVSPost2010Prop47
 90
       50
102
RTVSPost2010PropOp47
 70
     1
102
RTVSPost2010Prop48
 90
       50
102
RTVSPost2010PropOp48
 70
     1
102
RTVSPost2010Prop49
280
     0
102
RTVSPost2010PropOp49
 70
     1
102
RTVSPost2010Prop50
 90
       50
102
RTVSPost2010PropOp50
 70
     1
102
RTVSPost2010Prop51ColorIndex
 90
      256
102
RTVSPost2010Prop51ColorRGB
 90
-16777216
102
RTVSPost2010PropOp51
 70
     0
102
RTVSPost2010Prop52
140
1.0
102
RTVSPost2010PropOp52
 70
     0
102
RTVSPost2010Prop53
 90
        2
102
RTVSPost2010PropOp53
 70
     1
102
RTVSPost2010Prop54
  1
strokes_ogs.tif
102
RTVSPost2010PropOp54
 70
     1
102
RTVSPost2010Prop55
280
     0
102
RTVSPost2010PropOp55
 70
     1
102
RTVSPost2010Prop56
140
1.0
102
RTVSPost2010PropOp56
 70
     1
102
RTVSPost2010Prop57
140
1.0
102
RTVSPost2010PropOp57
 70
     1
  0
XRECORD
  5
2BA
102
{ACAD_REACTORS
330
2B9
102
}
330
2B9
100
AcDbXrecord
280
     1
102
RTVSPropertyOp0
 70
     0
102
RTVSPropertyOp1
 70
     0
102
RTVSPropertyOp2
 70
     0
102
RTVSPropertyOp3
 70
     0
102
RTVSPropertyOp4
 70
     0
102
RTVSPropertyOp5
 70
     0
102
RTVSPropertyOp6
 70
     0
102
RTVSPropertyOp7
 70
     0
102
RTVSPropertyOp8
 70
     0
102
RTVSPropertyOp9
 70
     0
102
RTVSPropertyOp10
 70
     0
102
RTVSPropertyOp11
 70
     0
102
RTVSPropertyOp12
 70
     0
102
RTVSPropertyOp13
 70
     0
102
RTVSPropertyOp14
 70
     2
102
RTVSPropertyOp15
 70
     0
102
RTVSPropertyOp16
 70
     0
102
RTVSPropertyOp17
 70
     0
102
RTVSPropertyOp18
 70
     0
102
RTVSPropertyOp19
 70
     0
102
RTVSPropertyOp20
 70
     0
102
RTVSPropertyOp21
 70
     0
102
RTVSPropertyOp22
 70
     0
102
RTVSPropertyOp23
 70
     0
102
RTVSPropertyOp24
 70
     0
102
RTVSPropertyOp25
 70
     0
102
RTVSPropertyOp26
 70
     0
102
RTVSPropertyOp27
 70
     0
102
RTVSPropertyOp28
 70
     0
102
RTVSPropertyOp29
 70
     0
102
RTVSPropertyOp30
 70
     0
102
RTVSPropertyOp31
 70
     0
102
RTVSPropertyOp32
 70
     0
102
RTVSPropertyOp33
 70
     0
102
RTVSPropertyOp34
 70
     0
102
RTVSPropertyOp35
 70
     0
102
RTVSPropertyOp36
 70
     0
102
RTVSPropertyOp37
 70
     0
102
RTVSPropertyOp38
 70
     0
102
RTVSPropertyOp39
 70
     0
102
RTVSPropertyOp40
 70
     0
102
RTVSPropertyOp41
 70
     0
102
RTVSPropertyOp42
 70
     0
102
RTVSPropertyOp43
 70
     0
102
RTVSPropertyOp44
 70
     0
102
RTVSPropertyOp45
 70
     0
102
RTVSPropertyOp46
 70
     0
102
RTVSPropertyOp47
 70
     0
102
RTVSPropertyOp48
 70
     0
102
RTVSPropertyOp49
 70
     0
102
RTVSPropertyOp50
 70
     0
102
RTVSPropertyOp51
 70
     0
102
RTVSPropertyOp52
 70
     0
102
RTVSPropertyOp53
 70
     0
102
RTVSPropertyOp54
 70
     0
102
RTVSPropertyOp55
 70
     0
102
RTVSPropertyOp56
 70
     0
102
RTVSPropertyOp57
 70
     0
102
RTVSPost2010Prop28
280
     0
102
RTVSPost2010PropOp28
 70
     0
102
RTVSPost2010Prop29
280
     1
102
RTVSPost2010PropOp29
 70
     0
102
RTVSPost2010Prop30
280
     1
102
RTVSPost2010PropOp30
 70
     0
102
RTVSPost2010Prop31
280
     0
102
RTVSPost2010PropOp31
 70
     0
102
RTVSPost2010Prop32
280
     0
102
RTVSPost2010PropOp32
 70
     0
102
RTVSPost2010Prop33
280
     0
102
RTVSPost2010PropOp33
 70
     0
102
RTVSPost2010Prop34
280
     0
102
RTVSPost2010PropOp34
 70
     0
102
RTVSPost2010Prop35
280
     0
102
RTVSPost2010PropOp35
 70
     0
102
RTVSPost2010Prop36
280
     0
102
RTVSPost2010PropOp36
 70
     0
102
RTVSPost2010Prop37
 90
       50
102
RTVSPost2010PropOp37
 70
     0
102
RTVSPost2010Prop38
140
0.0
102
RTVSPost2010PropOp38
 70
     0
102
RTVSPost2010Prop39
140
1.0
102
RTVSPost2010PropOp39
 70
     0
102
RTVSPost2010Prop40
 90
        0
102
RTVSPost2010PropOp40
 70
     0
102
RTVSPost2010Prop41ColorIndex
 90
       18
102
RTVSPost2010Prop41ColorRGB
 90
        0
102
RTVSPost2010PropOp41
 70
     0
102
RTVSPost2010Prop42
 90
       50
102
RTVSPost2010PropOp42
 70
     0
102
RTVSPost2010Prop43
 90
        3
102
RTVSPost2010PropOp43
 70
     0
102
RTVSPost2010Prop44ColorIndex
 90
        5
102
RTVSPost2010Prop44ColorRGB
 90
      255
102
RTVSPost2010PropOp44
 70
     0
102
RTVSPost2010Prop45
280
     0
102
RTVSPost2010PropOp45
 70
     0
102
RTVSPost2010Prop46
 90
       50
102
RTVSPost2010PropOp46
 70
     0
102
RTVSPost2010Prop47
 90
       50
102
RTVSPost2010PropOp47
 70
     0
102
RTVSPost2010Prop48
 90
       50
102
RTVSPost2010PropOp48
 70
     0
102
RTVSPost2010Prop49
280
     0
102
RTVSPost2010PropOp49
 70
     0
102
RTVSPost2010Prop50
 90
       50
102
RTVSPost2010PropOp50
 70
     0
102
RTVSPost2010Prop51ColorIndex
 90
      256
102
RTVSPost2010Prop51ColorRGB
 90
-16777216
102
RTVSPost2010PropOp51
 70
     0
102
RTVSPost2010Prop52
140
1.0
102
RTVSPost2010PropOp52
 70
     0
102
RTVSPost2010Prop53
 90
        2
102
RTVSPost2010PropOp53
 70
     0
102
RTVSPost2010Prop54
  1
strokes_ogs.tif
102
RTVSPost2010PropOp54
 70
     0
102
RTVSPost2010Prop55
280
     0
102
RTVSPost2010PropOp55
 70
     0
102
RTVSPost2010Prop56
140
1.0
102
RTVSPost2010PropOp56
 70
     0
102
RTVSPost2010Prop57
140
1.0
102
RTVSPost2010PropOp57
 70
     0
  0
XRECORD
  5
2B2
102
{ACAD_REACTORS
330
2B1
102
}
330
2B1
100
AcDbXrecord
280
     1
102
RTVSPropertyOp0
 70
     1
102
RTVSPropertyOp1
 70
     1
102
RTVSPropertyOp2
 70
     1
102
RTVSPropertyOp3
 70
     1
102
RTVSPropertyOp4
 70
     1
102
RTVSPropertyOp5
 70
     1
102
RTVSPropertyOp6
 70
     1
102
RTVSPropertyOp7
 70
     1
102
RTVSPropertyOp8
 70
     1
102
RTVSPropertyOp9
 70
     1
102
RTVSPropertyOp10
 70
     1
102
RTVSPropertyOp11
 70
     1
102
RTVSPropertyOp12
 70
     1
102
RTVSPropertyOp13
 70
     1
102
RTVSPropertyOp14
 70
     1
102
RTVSPropertyOp15
 70
     1
102
RTVSPropertyOp16
 70
     1
102
RTVSPropertyOp17
 70
     1
102
RTVSPropertyOp18
 70
     1
102
RTVSPropertyOp19
 70
     1
102
RTVSPropertyOp20
 70
     1
102
RTVSPropertyOp21
 70
     1
102
RTVSPropertyOp22
 70
     1
102
RTVSPropertyOp23
 70
     1
102
RTVSPropertyOp24
 70
     1
102
RTVSPropertyOp25
 70
     1
102
RTVSPropertyOp26
 70
     1
102
RTVSPropertyOp27
 70
     1
102
RTVSPropertyOp28
 70
     1
102
RTVSPropertyOp29
 70
     1
102
RTVSPropertyOp30
 70
     1
102
RTVSPropertyOp31
 70
     1
102
RTVSPropertyOp32
 70
     1
102
RTVSPropertyOp33
 70
     1
102
RTVSPropertyOp34
 70
     1
102
RTVSPropertyOp35
 70
     1
102
RTVSPropertyOp36
 70
     1
102
RTVSPropertyOp37
 70
     1
102
RTVSPropertyOp38
 70
     1
102
RTVSPropertyOp39
 70
     1
102
RTVSPropertyOp40
 70
     1
102
RTVSPropertyOp41
 70
     1
102
RTVSPropertyOp42
 70
     1
102
RTVSPropertyOp43
 70
     1
102
RTVSPropertyOp44
 70
     1
102
RTVSPropertyOp45
 70
     1
102
RTVSPropertyOp46
 70
     1
102
RTVSPropertyOp47
 70
     1
102
RTVSPropertyOp48
 70
     1
102
RTVSPropertyOp49
 70
     1
102
RTVSPropertyOp50
 70
     1
102
RTVSPropertyOp51
 70
     0
102
RTVSPropertyOp52
 70
     0
102
RTVSPropertyOp53
 70
     1
102
RTVSPropertyOp54
 70
     1
102
RTVSPropertyOp55
 70
     1
102
RTVSPropertyOp56
 70
     1
102
RTVSPropertyOp57
 70
     1
102
RTVSPost2010Prop28
280
     0
102
RTVSPost2010PropOp28
 70
     1
102
RTVSPost2010Prop29
280
     1
102
RTVSPost2010PropOp29
 70
     1
102
RTVSPost2010Prop30
280
     1
102
RTVSPost2010PropOp30
 70
     1
102
RTVSPost2010Prop31
280
     0
102
RTVSPost2010PropOp31
 70
     1
102
RTVSPost2010Prop32
280
     0
102
RTVSPost2010PropOp32
 70
     1
102
RTVSPost2010Prop33
280
     0
102
RTVSPost2010PropOp33
 70
     1
102
RTVSPost2010Prop34
280
     0
102
RTVSPost2010PropOp34
 70
     1
102
RTVSPost2010Prop35
280
     0
102
RTVSPost2010PropOp35
 70
     1
102
RTVSPost2010Prop36
280
     0
102
RTVSPost2010PropOp36
 70
     1
102
RTVSPost2010Prop37
 90
       50
102
RTVSPost2010PropOp37
 70
     1
102
RTVSPost2010Prop38
140
0.0
102
RTVSPost2010PropOp38
 70
     1
102
RTVSPost2010Prop39
140
1.0
102
RTVSPost2010PropOp39
 70
     1
102
RTVSPost2010Prop40
 90
        0
102
RTVSPost2010PropOp40
 70
     1
102
RTVSPost2010Prop41ColorIndex
 90
       18
102
RTVSPost2010Prop41ColorRGB
 90
        0
102
RTVSPost2010PropOp41
 70
     1
102
RTVSPost2010Prop42
 90
       50
102
RTVSPost2010PropOp42
 70
     1
102
RTVSPost2010Prop43
 90
        3
102
RTVSPost2010PropOp43
 70
     1
102
RTVSPost2010Prop44ColorIndex
 90
        5
102
RTVSPost2010Prop44ColorRGB
 90
      255
102
RTVSPost2010PropOp44
 70
     1
102
RTVSPost2010Prop45
280
     0
102
RTVSPost2010PropOp45
 70
     1
102
RTVSPost2010Prop46
 90
       50
102
RTVSPost2010PropOp46
 70
     1
102
RTVSPost2010Prop47
 90
       50
102
RTVSPost2010PropOp47
 70
     1
102
RTVSPost2010Prop48
 90
       50
102
RTVSPost2010PropOp48
 70
     1
102
RTVSPost2010Prop49
280
     0
102
RTVSPost2010PropOp49
 70
     1
102
RTVSPost2010Prop50
 90
       50
102
RTVSPost2010PropOp50
 70
     1
102
RTVSPost2010Prop51ColorIndex
 90
      256
102
RTVSPost2010Prop51ColorRGB
 90
-16777216
102
RTVSPost2010PropOp51
 70
     0
102
RTVSPost2010Prop52
140
1.0
102
RTVSPost2010PropOp52
 70
     0
102
RTVSPost2010Prop53
 90
        2
102
RTVSPost2010PropOp53
 70
     1
102
RTVSPost2010Prop54
  1
strokes_ogs.tif
102
RTVSPost2010PropOp54
 70
     1
102
RTVSPost2010Prop55
280
     0
102
RTVSPost2010PropOp55
 70
     1
102
RTVSPost2010Prop56
140
1.0
102
RTVSPost2010PropOp56
 70
     1
102
RTVSPost2010Prop57
140
1.0
102
RTVSPost2010PropOp57
 70
     1
  0
XRECORD
  5
296
102
{ACAD_REACTORS
330
295
102
}
330
295
100
AcDbXrecord
280
     1
102
RTVSPropertyOp0
 70
     1
102
RTVSPropertyOp1
 70
     1
102
RTVSPropertyOp2
 70
     1
102
RTVSPropertyOp3
 70
     1
102
RTVSPropertyOp4
 70
     1
102
RTVSPropertyOp5
 70
     1
102
RTVSPropertyOp6
 70
     1
102
RTVSPropertyOp7
 70
     1
102
RTVSPropertyOp8
 70
     1
102
RTVSPropertyOp9
 70
     1
102
RTVSPropertyOp10
 70
     1
102
RTVSPropertyOp11
 70
     1
102
RTVSPropertyOp12
 70
     1
102
RTVSPropertyOp13
 70
     1
102
RTVSPropertyOp14
 70
     1
102
RTVSPropertyOp15
 70
     1
102
RTVSPropertyOp16
 70
     1
102
RTVSPropertyOp17
 70
     1
102
RTVSPropertyOp18
 70
     1
102
RTVSPropertyOp19
 70
     1
102
RTVSPropertyOp20
 70
     1
102
RTVSPropertyOp21
 70
     1
102
RTVSPropertyOp22
 70
     1
102
RTVSPropertyOp23
 70
     1
102
RTVSPropertyOp24
 70
     1
102
RTVSPropertyOp25
 70
     1
102
RTVSPropertyOp26
 70
     1
102
RTVSPropertyOp27
 70
     1
102
RTVSPropertyOp28
 70
     1
102
RTVSPropertyOp29
 70
     1
102
RTVSPropertyOp30
 70
     1
102
RTVSPropertyOp31
 70
     1
102
RTVSPropertyOp32
 70
     1
102
RTVSPropertyOp33
 70
     1
102
RTVSPropertyOp34
 70
     1
102
RTVSPropertyOp35
 70
     1
102
RTVSPropertyOp36
 70
     1
102
RTVSPropertyOp37
 70
     1
102
RTVSPropertyOp38
 70
     1
102
RTVSPropertyOp39
 70
     1
102
RTVSPropertyOp40
 70
     1
102
RTVSPropertyOp41
 70
     1
102
RTVSPropertyOp42
 70
     1
102
RTVSPropertyOp43
 70
     1
102
RTVSPropertyOp44
 70
     1
102
RTVSPropertyOp45
 70
     1
102
RTVSPropertyOp46
 70
     1
102
RTVSPropertyOp47
 70
     1
102
RTVSPropertyOp48
 70
     1
102
RTVSPropertyOp49
 70
     1
102
RTVSPropertyOp50
 70
     1
102
RTVSPropertyOp51
 70
     0
102
RTVSPropertyOp52
 70
     0
102
RTVSPropertyOp53
 70
     1
102
RTVSPropertyOp54
 70
     1
102
RTVSPropertyOp55
 70
     1
102
RTVSPropertyOp56
 70
     1
102
RTVSPropertyOp57
 70
     1
102
RTVSPost2010Prop28
280
     0
102
RTVSPost2010PropOp28
 70
     1
102
RTVSPost2010Prop29
280
     1
102
RTVSPost2010PropOp29
 70
     1
102
RTVSPost2010Prop30
280
     1
102
RTVSPost2010PropOp30
 70
     1
102
RTVSPost2010Prop31
280
     0
102
RTVSPost2010PropOp31
 70
     1
102
RTVSPost2010Prop32
280
     0
102
RTVSPost2010PropOp32
 70
     1
102
RTVSPost2010Prop33
280
     0
102
RTVSPost2010PropOp33
 70
     1
102
RTVSPost2010Prop34
280
     0
102
RTVSPost2010PropOp34
 70
     1
102
RTVSPost2010Prop35
280
     0
102
RTVSPost2010PropOp35
 70
     1
102
RTVSPost2010Prop36
280
     0
102
RTVSPost2010PropOp36
 70
     1
102
RTVSPost2010Prop37
 90
       50
102
RTVSPost2010PropOp37
 70
     1
102
RTVSPost2010Prop38
140
0.0
102
RTVSPost2010PropOp38
 70
     1
102
RTVSPost2010Prop39
140
1.0
102
RTVSPost2010PropOp39
 70
     1
102
RTVSPost2010Prop40
 90
        0
102
RTVSPost2010PropOp40
 70
     1
102
RTVSPost2010Prop41ColorIndex
 90
       18
102
RTVSPost2010Prop41ColorRGB
 90
        0
102
RTVSPost2010PropOp41
 70
     1
102
RTVSPost2010Prop42
 90
       50
102
RTVSPost2010PropOp42
 70
     1
102
RTVSPost2010Prop43
 90
        3
102
RTVSPost2010PropOp43
 70
     1
102
RTVSPost2010Prop44ColorIndex
 90
        5
102
RTVSPost2010Prop44ColorRGB
 90
      255
102
RTVSPost2010PropOp44
 70
     1
102
RTVSPost2010Prop45
280
     0
102
RTVSPost2010PropOp45
 70
     1
102
RTVSPost2010Prop46
 90
       50
102
RTVSPost2010PropOp46
 70
     1
102
RTVSPost2010Prop47
 90
       50
102
RTVSPost2010PropOp47
 70
     1
102
RTVSPost2010Prop48
 90
       50
102
RTVSPost2010PropOp48
 70
     1
102
RTVSPost2010Prop49
280
     0
102
RTVSPost2010PropOp49
 70
     1
102
RTVSPost2010Prop50
 90
       50
102
RTVSPost2010PropOp50
 70
     1
102
RTVSPost2010Prop51ColorIndex
 90
      256
102
RTVSPost2010Prop51ColorRGB
 90
-16777216
102
RTVSPost2010PropOp51
 70
     0
102
RTVSPost2010Prop52
140
1.0
102
RTVSPost2010PropOp52
 70
     0
102
RTVSPost2010Prop53
 90
        2
102
RTVSPost2010PropOp53
 70
     1
102
RTVSPost2010Prop54
  1
strokes_ogs.tif
102
RTVSPost2010PropOp54
 70
     1
102
RTVSPost2010Prop55
280
     0
102
RTVSPost2010PropOp55
 70
     1
102
RTVSPost2010Prop56
140
1.0
102
RTVSPost2010PropOp56
 70
     1
102
RTVSPost2010Prop57
140
1.0
102
RTVSPost2010PropOp57
 70
     1
  0
XRECORD
  5
298
102
{ACAD_REACTORS
330
297
102
}
330
297
100
AcDbXrecord
280
     1
102
RTVSPropertyOp0
 70
     1
102
RTVSPropertyOp1
 70
     1
102
RTVSPropertyOp2
 70
     1
102
RTVSPropertyOp3
 70
     1
102
RTVSPropertyOp4
 70
     1
102
RTVSPropertyOp5
 70
     1
102
RTVSPropertyOp6
 70
     1
102
RTVSPropertyOp7
 70
     1
102
RTVSPropertyOp8
 70
     1
102
RTVSPropertyOp9
 70
     1
102
RTVSPropertyOp10
 70
     1
102
RTVSPropertyOp11
 70
     1
102
RTVSPropertyOp12
 70
     1
102
RTVSPropertyOp13
 70
     1
102
RTVSPropertyOp14
 70
     1
102
RTVSPropertyOp15
 70
     1
102
RTVSPropertyOp16
 70
     1
102
RTVSPropertyOp17
 70
     1
102
RTVSPropertyOp18
 70
     1
102
RTVSPropertyOp19
 70
     1
102
RTVSPropertyOp20
 70
     1
102
RTVSPropertyOp21
 70
     1
102
RTVSPropertyOp22
 70
     1
102
RTVSPropertyOp23
 70
     1
102
RTVSPropertyOp24
 70
     1
102
RTVSPropertyOp25
 70
     1
102
RTVSPropertyOp26
 70
     1
102
RTVSPropertyOp27
 70
     1
102
RTVSPropertyOp28
 70
     1
102
RTVSPropertyOp29
 70
     1
102
RTVSPropertyOp30
 70
     1
102
RTVSPropertyOp31
 70
     1
102
RTVSPropertyOp32
 70
     1
102
RTVSPropertyOp33
 70
     1
102
RTVSPropertyOp34
 70
     1
102
RTVSPropertyOp35
 70
     1
102
RTVSPropertyOp36
 70
     1
102
RTVSPropertyOp37
 70
     1
102
RTVSPropertyOp38
 70
     1
102
RTVSPropertyOp39
 70
     1
102
RTVSPropertyOp40
 70
     1
102
RTVSPropertyOp41
 70
     1
102
RTVSPropertyOp42
 70
     1
102
RTVSPropertyOp43
 70
     1
102
RTVSPropertyOp44
 70
     1
102
RTVSPropertyOp45
 70
     1
102
RTVSPropertyOp46
 70
     1
102
RTVSPropertyOp47
 70
     1
102
RTVSPropertyOp48
 70
     1
102
RTVSPropertyOp49
 70
     1
102
RTVSPropertyOp50
 70
     1
102
RTVSPropertyOp51
 70
     0
102
RTVSPropertyOp52
 70
     0
102
RTVSPropertyOp53
 70
     1
102
RTVSPropertyOp54
 70
     1
102
RTVSPropertyOp55
 70
     1
102
RTVSPropertyOp56
 70
     1
102
RTVSPropertyOp57
 70
     1
102
RTVSPost2010Prop28
280
     0
102
RTVSPost2010PropOp28
 70
     1
102
RTVSPost2010Prop29
280
     1
102
RTVSPost2010PropOp29
 70
     1
102
RTVSPost2010Prop30
280
     1
102
RTVSPost2010PropOp30
 70
     1
102
RTVSPost2010Prop31
280
     0
102
RTVSPost2010PropOp31
 70
     1
102
RTVSPost2010Prop32
280
     0
102
RTVSPost2010PropOp32
 70
     1
102
RTVSPost2010Prop33
280
     0
102
RTVSPost2010PropOp33
 70
     1
102
RTVSPost2010Prop34
280
     0
102
RTVSPost2010PropOp34
 70
     1
102
RTVSPost2010Prop35
280
     0
102
RTVSPost2010PropOp35
 70
     1
102
RTVSPost2010Prop36
280
     0
102
RTVSPost2010PropOp36
 70
     1
102
RTVSPost2010Prop37
 90
       50
102
RTVSPost2010PropOp37
 70
     1
102
RTVSPost2010Prop38
140
0.0
102
RTVSPost2010PropOp38
 70
     1
102
RTVSPost2010Prop39
140
1.0
102
RTVSPost2010PropOp39
 70
     1
102
RTVSPost2010Prop40
 90
        0
102
RTVSPost2010PropOp40
 70
     1
102
RTVSPost2010Prop41ColorIndex
 90
       18
102
RTVSPost2010Prop41ColorRGB
 90
        0
102
RTVSPost2010PropOp41
 70
     1
102
RTVSPost2010Prop42
 90
       50
102
RTVSPost2010PropOp42
 70
     1
102
RTVSPost2010Prop43
 90
        3
102
RTVSPost2010PropOp43
 70
     1
102
RTVSPost2010Prop44ColorIndex
 90
        5
102
RTVSPost2010Prop44ColorRGB
 90
      255
102
RTVSPost2010PropOp44
 70
     1
102
RTVSPost2010Prop45
280
     0
102
RTVSPost2010PropOp45
 70
     1
102
RTVSPost2010Prop46
 90
       50
102
RTVSPost2010PropOp46
 70
     1
102
RTVSPost2010Prop47
 90
       50
102
RTVSPost2010PropOp47
 70
     1
102
RTVSPost2010Prop48
 90
       50
102
RTVSPost2010PropOp48
 70
     1
102
RTVSPost2010Prop49
280
     0
102
RTVSPost2010PropOp49
 70
     1
102
RTVSPost2010Prop50
 90
       50
102
RTVSPost2010PropOp50
 70
     1
102
RTVSPost2010Prop51ColorIndex
 90
      256
102
RTVSPost2010Prop51ColorRGB
 90
-16777216
102
RTVSPost2010PropOp51
 70
     0
102
RTVSPost2010Prop52
140
1.0
102
RTVSPost2010PropOp52
 70
     0
102
RTVSPost2010Prop53
 90
        2
102
RTVSPost2010PropOp53
 70
     1
102
RTVSPost2010Prop54
  1
strokes_ogs.tif
102
RTVSPost2010PropOp54
 70
     1
102
RTVSPost2010Prop55
280
     0
102
RTVSPost2010PropOp55
 70
     1
102
RTVSPost2010Prop56
140
1.0
102
RTVSPost2010PropOp56
 70
     1
102
RTVSPost2010Prop57
140
1.0
102
RTVSPost2010PropOp57
 70
     1
  0
XRECORD
  5
29A
102
{ACAD_REACTORS
330
299
102
}
330
299
100
AcDbXrecord
280
     1
102
RTVSPropertyOp0
 70
     1
102
RTVSPropertyOp1
 70
     1
102
RTVSPropertyOp2
 70
     1
102
RTVSPropertyOp3
 70
     1
102
RTVSPropertyOp4
 70
     1
102
RTVSPropertyOp5
 70
     1
102
RTVSPropertyOp6
 70
     1
102
RTVSPropertyOp7
 70
     1
102
RTVSPropertyOp8
 70
     1
102
RTVSPropertyOp9
 70
     1
102
RTVSPropertyOp10
 70
     1
102
RTVSPropertyOp11
 70
     1
102
RTVSPropertyOp12
 70
     1
102
RTVSPropertyOp13
 70
     1
102
RTVSPropertyOp14
 70
     1
102
RTVSPropertyOp15
 70
     1
102
RTVSPropertyOp16
 70
     1
102
RTVSPropertyOp17
 70
     1
102
RTVSPropertyOp18
 70
     1
102
RTVSPropertyOp19
 70
     1
102
RTVSPropertyOp20
 70
     1
102
RTVSPropertyOp21
 70
     1
102
RTVSPropertyOp22
 70
     1
102
RTVSPropertyOp23
 70
     1
102
RTVSPropertyOp24
 70
     1
102
RTVSPropertyOp25
 70
     1
102
RTVSPropertyOp26
 70
     1
102
RTVSPropertyOp27
 70
     1
102
RTVSPropertyOp28
 70
     1
102
RTVSPropertyOp29
 70
     1
102
RTVSPropertyOp30
 70
     1
102
RTVSPropertyOp31
 70
     1
102
RTVSPropertyOp32
 70
     1
102
RTVSPropertyOp33
 70
     1
102
RTVSPropertyOp34
 70
     1
102
RTVSPropertyOp35
 70
     1
102
RTVSPropertyOp36
 70
     1
102
RTVSPropertyOp37
 70
     1
102
RTVSPropertyOp38
 70
     1
102
RTVSPropertyOp39
 70
     1
102
RTVSPropertyOp40
 70
     1
102
RTVSPropertyOp41
 70
     1
102
RTVSPropertyOp42
 70
     1
102
RTVSPropertyOp43
 70
     1
102
RTVSPropertyOp44
 70
     1
102
RTVSPropertyOp45
 70
     1
102
RTVSPropertyOp46
 70
     1
102
RTVSPropertyOp47
 70
     1
102
RTVSPropertyOp48
 70
     1
102
RTVSPropertyOp49
 70
     1
102
RTVSPropertyOp50
 70
     1
102
RTVSPropertyOp51
 70
     0
102
RTVSPropertyOp52
 70
     0
102
RTVSPropertyOp53
 70
     1
102
RTVSPropertyOp54
 70
     1
102
RTVSPropertyOp55
 70
     1
102
RTVSPropertyOp56
 70
     1
102
RTVSPropertyOp57
 70
     1
102
RTVSPost2010Prop28
280
     0
102
RTVSPost2010PropOp28
 70
     1
102
RTVSPost2010Prop29
280
     1
102
RTVSPost2010PropOp29
 70
     1
102
RTVSPost2010Prop30
280
     1
102
RTVSPost2010PropOp30
 70
     1
102
RTVSPost2010Prop31
280
     0
102
RTVSPost2010PropOp31
 70
     1
102
RTVSPost2010Prop32
280
     0
102
RTVSPost2010PropOp32
 70
     1
102
RTVSPost2010Prop33
280
     0
102
RTVSPost2010PropOp33
 70
     1
102
RTVSPost2010Prop34
280
     0
102
RTVSPost2010PropOp34
 70
     1
102
RTVSPost2010Prop35
280
     0
102
RTVSPost2010PropOp35
 70
     1
102
RTVSPost2010Prop36
280
     0
102
RTVSPost2010PropOp36
 70
     1
102
RTVSPost2010Prop37
 90
       50
102
RTVSPost2010PropOp37
 70
     1
102
RTVSPost2010Prop38
140
0.0
102
RTVSPost2010PropOp38
 70
     1
102
RTVSPost2010Prop39
140
1.0
102
RTVSPost2010PropOp39
 70
     1
102
RTVSPost2010Prop40
 90
        0
102
RTVSPost2010PropOp40
 70
     1
102
RTVSPost2010Prop41ColorIndex
 90
       18
102
RTVSPost2010Prop41ColorRGB
 90
        0
102
RTVSPost2010PropOp41
 70
     1
102
RTVSPost2010Prop42
 90
       50
102
RTVSPost2010PropOp42
 70
     1
102
RTVSPost2010Prop43
 90
        3
102
RTVSPost2010PropOp43
 70
     1
102
RTVSPost2010Prop44ColorIndex
 90
        5
102
RTVSPost2010Prop44ColorRGB
 90
      255
102
RTVSPost2010PropOp44
 70
     1
102
RTVSPost2010Prop45
280
     0
102
RTVSPost2010PropOp45
 70
     1
102
RTVSPost2010Prop46
 90
       50
102
RTVSPost2010PropOp46
 70
     1
102
RTVSPost2010Prop47
 90
       50
102
RTVSPost2010PropOp47
 70
     1
102
RTVSPost2010Prop48
 90
       50
102
RTVSPost2010PropOp48
 70
     1
102
RTVSPost2010Prop49
280
     0
102
RTVSPost2010PropOp49
 70
     1
102
RTVSPost2010Prop50
 90
       50
102
RTVSPost2010PropOp50
 70
     1
102
RTVSPost2010Prop51ColorIndex
 90
      256
102
RTVSPost2010Prop51ColorRGB
 90
-16777216
102
RTVSPost2010PropOp51
 70
     0
102
RTVSPost2010Prop52
140
1.0
102
RTVSPost2010PropOp52
 70
     0
102
RTVSPost2010Prop53
 90
        2
102
RTVSPost2010PropOp53
 70
     1
102
RTVSPost2010Prop54
  1
strokes_ogs.tif
102
RTVSPost2010PropOp54
 70
     1
102
RTVSPost2010Prop55
280
     0
102
RTVSPost2010PropOp55
 70
     1
102
RTVSPost2010Prop56
140
1.0
102
RTVSPost2010PropOp56
 70
     1
102
RTVSPost2010Prop57
140
1.0
102
RTVSPost2010PropOp57
 70
     1
  0
XRECORD
  5
29C
102
{ACAD_REACTORS
330
29B
102
}
330
29B
100
AcDbXrecord
280
     1
102
RTVSPropertyOp0
 70
     1
102
RTVSPropertyOp1
 70
     1
102
RTVSPropertyOp2
 70
     1
102
RTVSPropertyOp3
 70
     1
102
RTVSPropertyOp4
 70
     1
102
RTVSPropertyOp5
 70
     1
102
RTVSPropertyOp6
 70
     1
102
RTVSPropertyOp7
 70
     1
102
RTVSPropertyOp8
 70
     1
102
RTVSPropertyOp9
 70
     1
102
RTVSPropertyOp10
 70
     1
102
RTVSPropertyOp11
 70
     1
102
RTVSPropertyOp12
 70
     1
102
RTVSPropertyOp13
 70
     1
102
RTVSPropertyOp14
 70
     1
102
RTVSPropertyOp15
 70
     1
102
RTVSPropertyOp16
 70
     1
102
RTVSPropertyOp17
 70
     1
102
RTVSPropertyOp18
 70
     1
102
RTVSPropertyOp19
 70
     1
102
RTVSPropertyOp20
 70
     1
102
RTVSPropertyOp21
 70
     1
102
RTVSPropertyOp22
 70
     1
102
RTVSPropertyOp23
 70
     1
102
RTVSPropertyOp24
 70
     1
102
RTVSPropertyOp25
 70
     1
102
RTVSPropertyOp26
 70
     1
102
RTVSPropertyOp27
 70
     1
102
RTVSPropertyOp28
 70
     1
102
RTVSPropertyOp29
 70
     1
102
RTVSPropertyOp30
 70
     1
102
RTVSPropertyOp31
 70
     1
102
RTVSPropertyOp32
 70
     1
102
RTVSPropertyOp33
 70
     1
102
RTVSPropertyOp34
 70
     1
102
RTVSPropertyOp35
 70
     1
102
RTVSPropertyOp36
 70
     1
102
RTVSPropertyOp37
 70
     1
102
RTVSPropertyOp38
 70
     1
102
RTVSPropertyOp39
 70
     1
102
RTVSPropertyOp40
 70
     1
102
RTVSPropertyOp41
 70
     1
102
RTVSPropertyOp42
 70
     1
102
RTVSPropertyOp43
 70
     1
102
RTVSPropertyOp44
 70
     1
102
RTVSPropertyOp45
 70
     1
102
RTVSPropertyOp46
 70
     1
102
RTVSPropertyOp47
 70
     1
102
RTVSPropertyOp48
 70
     1
102
RTVSPropertyOp49
 70
     1
102
RTVSPropertyOp50
 70
     1
102
RTVSPropertyOp51
 70
     0
102
RTVSPropertyOp52
 70
     0
102
RTVSPropertyOp53
 70
     1
102
RTVSPropertyOp54
 70
     1
102
RTVSPropertyOp55
 70
     1
102
RTVSPropertyOp56
 70
     1
102
RTVSPropertyOp57
 70
     1
102
RTVSPost2010Prop28
280
     0
102
RTVSPost2010PropOp28
 70
     1
102
RTVSPost2010Prop29
280
     1
102
RTVSPost2010PropOp29
 70
     1
102
RTVSPost2010Prop30
280
     1
102
RTVSPost2010PropOp30
 70
     1
102
RTVSPost2010Prop31
280
     0
102
RTVSPost2010PropOp31
 70
     1
102
RTVSPost2010Prop32
280
     0
102
RTVSPost2010PropOp32
 70
     1
102
RTVSPost2010Prop33
280
     0
102
RTVSPost2010PropOp33
 70
     1
102
RTVSPost2010Prop34
280
     0
102
RTVSPost2010PropOp34
 70
     1
102
RTVSPost2010Prop35
280
     0
102
RTVSPost2010PropOp35
 70
     1
102
RTVSPost2010Prop36
280
     0
102
RTVSPost2010PropOp36
 70
     1
102
RTVSPost2010Prop37
 90
       50
102
RTVSPost2010PropOp37
 70
     1
102
RTVSPost2010Prop38
140
0.0
102
RTVSPost2010PropOp38
 70
     1
102
RTVSPost2010Prop39
140
1.0
102
RTVSPost2010PropOp39
 70
     1
102
RTVSPost2010Prop40
 90
        0
102
RTVSPost2010PropOp40
 70
     1
102
RTVSPost2010Prop41ColorIndex
 90
       18
102
RTVSPost2010Prop41ColorRGB
 90
        0
102
RTVSPost2010PropOp41
 70
     1
102
RTVSPost2010Prop42
 90
       50
102
RTVSPost2010PropOp42
 70
     1
102
RTVSPost2010Prop43
 90
        3
102
RTVSPost2010PropOp43
 70
     1
102
RTVSPost2010Prop44ColorIndex
 90
        5
102
RTVSPost2010Prop44ColorRGB
 90
      255
102
RTVSPost2010PropOp44
 70
     1
102
RTVSPost2010Prop45
280
     0
102
RTVSPost2010PropOp45
 70
     1
102
RTVSPost2010Prop46
 90
       50
102
RTVSPost2010PropOp46
 70
     1
102
RTVSPost2010Prop47
 90
       50
102
RTVSPost2010PropOp47
 70
     1
102
RTVSPost2010Prop48
 90
       50
102
RTVSPost2010PropOp48
 70
     1
102
RTVSPost2010Prop49
280
     0
102
RTVSPost2010PropOp49
 70
     1
102
RTVSPost2010Prop50
 90
       50
102
RTVSPost2010PropOp50
 70
     1
102
RTVSPost2010Prop51ColorIndex
 90
      256
102
RTVSPost2010Prop51ColorRGB
 90
-16777216
102
RTVSPost2010PropOp51
 70
     0
102
RTVSPost2010Prop52
140
1.0
102
RTVSPost2010PropOp52
 70
     0
102
RTVSPost2010Prop53
 90
        2
102
RTVSPost2010PropOp53
 70
     1
102
RTVSPost2010Prop54
  1
strokes_ogs.tif
102
RTVSPost2010PropOp54
 70
     1
102
RTVSPost2010Prop55
280
     0
102
RTVSPost2010PropOp55
 70
     1
102
RTVSPost2010Prop56
140
1.0
102
RTVSPost2010PropOp56
 70
     1
102
RTVSPost2010Prop57
140
1.0
102
RTVSPost2010PropOp57
 70
     1
  0
XRECORD
  5
2A2
102
{ACAD_REACTORS
330
2A1
102
}
330
2A1
100
AcDbXrecord
280
     1
102
RTVSPropertyOp0
 70
     1
102
RTVSPropertyOp1
 70
     1
102
RTVSPropertyOp2
 70
     1
102
RTVSPropertyOp3
 70
     1
102
RTVSPropertyOp4
 70
     1
102
RTVSPropertyOp5
 70
     1
102
RTVSPropertyOp6
 70
     1
102
RTVSPropertyOp7
 70
     1
102
RTVSPropertyOp8
 70
     1
102
RTVSPropertyOp9
 70
     1
102
RTVSPropertyOp10
 70
     1
102
RTVSPropertyOp11
 70
     1
102
RTVSPropertyOp12
 70
     1
102
RTVSPropertyOp13
 70
     1
102
RTVSPropertyOp14
 70
     1
102
RTVSPropertyOp15
 70
     1
102
RTVSPropertyOp16
 70
     1
102
RTVSPropertyOp17
 70
     1
102
RTVSPropertyOp18
 70
     1
102
RTVSPropertyOp19
 70
     1
102
RTVSPropertyOp20
 70
     1
102
RTVSPropertyOp21
 70
     1
102
RTVSPropertyOp22
 70
     1
102
RTVSPropertyOp23
 70
     1
102
RTVSPropertyOp24
 70
     1
102
RTVSPropertyOp25
 70
     1
102
RTVSPropertyOp26
 70
     1
102
RTVSPropertyOp27
 70
     1
102
RTVSPropertyOp28
 70
     1
102
RTVSPropertyOp29
 70
     1
102
RTVSPropertyOp30
 70
     1
102
RTVSPropertyOp31
 70
     1
102
RTVSPropertyOp32
 70
     1
102
RTVSPropertyOp33
 70
     1
102
RTVSPropertyOp34
 70
     1
102
RTVSPropertyOp35
 70
     1
102
RTVSPropertyOp36
 70
     1
102
RTVSPropertyOp37
 70
     1
102
RTVSPropertyOp38
 70
     1
102
RTVSPropertyOp39
 70
     1
102
RTVSPropertyOp40
 70
     1
102
RTVSPropertyOp41
 70
     1
102
RTVSPropertyOp42
 70
     1
102
RTVSPropertyOp43
 70
     1
102
RTVSPropertyOp44
 70
     1
102
RTVSPropertyOp45
 70
     1
102
RTVSPropertyOp46
 70
     1
102
RTVSPropertyOp47
 70
     1
102
RTVSPropertyOp48
 70
     1
102
RTVSPropertyOp49
 70
     1
102
RTVSPropertyOp50
 70
     1
102
RTVSPropertyOp51
 70
     0
102
RTVSPropertyOp52
 70
     0
102
RTVSPropertyOp53
 70
     1
102
RTVSPropertyOp54
 70
     1
102
RTVSPropertyOp55
 70
     1
102
RTVSPropertyOp56
 70
     1
102
RTVSPropertyOp57
 70
     1
102
RTVSPost2010Prop28
280
     0
102
RTVSPost2010PropOp28
 70
     1
102
RTVSPost2010Prop29
280
     1
102
RTVSPost2010PropOp29
 70
     1
102
RTVSPost2010Prop30
280
     1
102
RTVSPost2010PropOp30
 70
     1
102
RTVSPost2010Prop31
280
     0
102
RTVSPost2010PropOp31
 70
     1
102
RTVSPost2010Prop32
280
     0
102
RTVSPost2010PropOp32
 70
     1
102
RTVSPost2010Prop33
280
     0
102
RTVSPost2010PropOp33
 70
     1
102
RTVSPost2010Prop34
280
     0
102
RTVSPost2010PropOp34
 70
     1
102
RTVSPost2010Prop35
280
     0
102
RTVSPost2010PropOp35
 70
     1
102
RTVSPost2010Prop36
280
     0
102
RTVSPost2010PropOp36
 70
     1
102
RTVSPost2010Prop37
 90
       50
102
RTVSPost2010PropOp37
 70
     1
102
RTVSPost2010Prop38
140
0.0
102
RTVSPost2010PropOp38
 70
     1
102
RTVSPost2010Prop39
140
1.0
102
RTVSPost2010PropOp39
 70
     1
102
RTVSPost2010Prop40
 90
        0
102
RTVSPost2010PropOp40
 70
     1
102
RTVSPost2010Prop41ColorIndex
 90
       18
102
RTVSPost2010Prop41ColorRGB
 90
        0
102
RTVSPost2010PropOp41
 70
     1
102
RTVSPost2010Prop42
 90
       50
102
RTVSPost2010PropOp42
 70
     1
102
RTVSPost2010Prop43
 90
        3
102
RTVSPost2010PropOp43
 70
     1
102
RTVSPost2010Prop44ColorIndex
 90
        5
102
RTVSPost2010Prop44ColorRGB
 90
      255
102
RTVSPost2010PropOp44
 70
     1
102
RTVSPost2010Prop45
280
     0
102
RTVSPost2010PropOp45
 70
     1
102
RTVSPost2010Prop46
 90
       50
102
RTVSPost2010PropOp46
 70
     1
102
RTVSPost2010Prop47
 90
       50
102
RTVSPost2010PropOp47
 70
     1
102
RTVSPost2010Prop48
 90
       50
102
RTVSPost2010PropOp48
 70
     1
102
RTVSPost2010Prop49
280
     0
102
RTVSPost2010PropOp49
 70
     1
102
RTVSPost2010Prop50
 90
       50
102
RTVSPost2010PropOp50
 70
     1
102
RTVSPost2010Prop51ColorIndex
 90
      256
102
RTVSPost2010Prop51ColorRGB
 90
-16777216
102
RTVSPost2010PropOp51
 70
     0
102
RTVSPost2010Prop52
140
1.0
102
RTVSPost2010PropOp52
 70
     0
102
RTVSPost2010Prop53
 90
        2
102
RTVSPost2010PropOp53
 70
     1
102
RTVSPost2010Prop54
  1
strokes_ogs.tif
102
RTVSPost2010PropOp54
 70
     1
102
RTVSPost2010Prop55
280
     0
102
RTVSPost2010PropOp55
 70
     1
102
RTVSPost2010Prop56
140
1.0
102
RTVSPost2010PropOp56
 70
     1
102
RTVSPost2010Prop57
140
1.0
102
RTVSPost2010PropOp57
 70
     1
  0
XRECORD
  5
2B6
102
{ACAD_REACTORS
330
2B5
102
}
330
2B5
100
AcDbXrecord
280
     1
102
RTVSPropertyOp0
 70
     0
102
RTVSPropertyOp1
 70
     0
102
RTVSPropertyOp2
 70
     0
102
RTVSPropertyOp3
 70
     0
102
RTVSPropertyOp4
 70
     0
102
RTVSPropertyOp5
 70
     0
102
RTVSPropertyOp6
 70
     0
102
RTVSPropertyOp7
 70
     0
102
RTVSPropertyOp8
 70
     0
102
RTVSPropertyOp9
 70
     0
102
RTVSPropertyOp10
 70
     0
102
RTVSPropertyOp11
 70
     0
102
RTVSPropertyOp12
 70
     0
102
RTVSPropertyOp13
 70
     0
102
RTVSPropertyOp14
 70
     2
102
RTVSPropertyOp15
 70
     0
102
RTVSPropertyOp16
 70
     0
102
RTVSPropertyOp17
 70
     0
102
RTVSPropertyOp18
 70
     0
102
RTVSPropertyOp19
 70
     0
102
RTVSPropertyOp20
 70
     0
102
RTVSPropertyOp21
 70
     0
102
RTVSPropertyOp22
 70
     0
102
RTVSPropertyOp23
 70
     0
102
RTVSPropertyOp24
 70
     0
102
RTVSPropertyOp25
 70
     0
102
RTVSPropertyOp26
 70
     0
102
RTVSPropertyOp27
 70
     0
102
RTVSPropertyOp28
 70
     0
102
RTVSPropertyOp29
 70
     0
102
RTVSPropertyOp30
 70
     0
102
RTVSPropertyOp31
 70
     0
102
RTVSPropertyOp32
 70
     0
102
RTVSPropertyOp33
 70
     0
102
RTVSPropertyOp34
 70
     0
102
RTVSPropertyOp35
 70
     0
102
RTVSPropertyOp36
 70
     0
102
RTVSPropertyOp37
 70
     0
102
RTVSPropertyOp38
 70
     0
102
RTVSPropertyOp39
 70
     0
102
RTVSPropertyOp40
 70
     0
102
RTVSPropertyOp41
 70
     0
102
RTVSPropertyOp42
 70
     0
102
RTVSPropertyOp43
 70
     0
102
RTVSPropertyOp44
 70
     0
102
RTVSPropertyOp45
 70
     0
102
RTVSPropertyOp46
 70
     0
102
RTVSPropertyOp47
 70
     0
102
RTVSPropertyOp48
 70
     0
102
RTVSPropertyOp49
 70
     0
102
RTVSPropertyOp50
 70
     0
102
RTVSPropertyOp51
 70
     0
102
RTVSPropertyOp52
 70
     0
102
RTVSPropertyOp53
 70
     0
102
RTVSPropertyOp54
 70
     0
102
RTVSPropertyOp55
 70
     0
102
RTVSPropertyOp56
 70
     0
102
RTVSPropertyOp57
 70
     0
102
RTVSPost2010Prop28
280
     0
102
RTVSPost2010PropOp28
 70
     0
102
RTVSPost2010Prop29
280
     1
102
RTVSPost2010PropOp29
 70
     0
102
RTVSPost2010Prop30
280
     1
102
RTVSPost2010PropOp30
 70
     0
102
RTVSPost2010Prop31
280
     0
102
RTVSPost2010PropOp31
 70
     0
102
RTVSPost2010Prop32
280
     0
102
RTVSPost2010PropOp32
 70
     0
102
RTVSPost2010Prop33
280
     0
102
RTVSPost2010PropOp33
 70
     0
102
RTVSPost2010Prop34
280
     0
102
RTVSPost2010PropOp34
 70
     0
102
RTVSPost2010Prop35
280
     0
102
RTVSPost2010PropOp35
 70
     0
102
RTVSPost2010Prop36
280
     0
102
RTVSPost2010PropOp36
 70
     0
102
RTVSPost2010Prop37
 90
       50
102
RTVSPost2010PropOp37
 70
     0
102
RTVSPost2010Prop38
140
0.0
102
RTVSPost2010PropOp38
 70
     0
102
RTVSPost2010Prop39
140
1.0
102
RTVSPost2010PropOp39
 70
     0
102
RTVSPost2010Prop40
 90
        0
102
RTVSPost2010PropOp40
 70
     0
102
RTVSPost2010Prop41ColorIndex
 90
       18
102
RTVSPost2010Prop41ColorRGB
 90
        0
102
RTVSPost2010PropOp41
 70
     0
102
RTVSPost2010Prop42
 90
       50
102
RTVSPost2010PropOp42
 70
     0
102
RTVSPost2010Prop43
 90
        3
102
RTVSPost2010PropOp43
 70
     0
102
RTVSPost2010Prop44ColorIndex
 90
        5
102
RTVSPost2010Prop44ColorRGB
 90
      255
102
RTVSPost2010PropOp44
 70
     0
102
RTVSPost2010Prop45
280
     0
102
RTVSPost2010PropOp45
 70
     0
102
RTVSPost2010Prop46
 90
       50
102
RTVSPost2010PropOp46
 70
     0
102
RTVSPost2010Prop47
 90
       50
102
RTVSPost2010PropOp47
 70
     0
102
RTVSPost2010Prop48
 90
       50
102
RTVSPost2010PropOp48
 70
     0
102
RTVSPost2010Prop49
280
     0
102
RTVSPost2010PropOp49
 70
     0
102
RTVSPost2010Prop50
 90
       50
102
RTVSPost2010PropOp50
 70
     0
102
RTVSPost2010Prop51ColorIndex
 90
      256
102
RTVSPost2010Prop51ColorRGB
 90
-16777216
102
RTVSPost2010PropOp51
 70
     0
102
RTVSPost2010Prop52
140
1.0
102
RTVSPost2010PropOp52
 70
     0
102
RTVSPost2010Prop53
 90
        2
102
RTVSPost2010PropOp53
 70
     0
102
RTVSPost2010Prop54
  1
strokes_ogs.tif
102
RTVSPost2010PropOp54
 70
     0
102
RTVSPost2010Prop55
280
     0
102
RTVSPost2010PropOp55
 70
     0
102
RTVSPost2010Prop56
140
1.0
102
RTVSPost2010PropOp56
 70
     0
102
RTVSPost2010Prop57
140
1.0
102
RTVSPost2010PropOp57
 70
     0
  0
XRECORD
  5
2B0
102
{ACAD_REACTORS
330
2AF
102
}
330
2AF
100
AcDbXrecord
280
     1
102
RTVSPropertyOp0
 70
     1
102
RTVSPropertyOp1
 70
     1
102
RTVSPropertyOp2
 70
     1
102
RTVSPropertyOp3
 70
     1
102
RTVSPropertyOp4
 70
     1
102
RTVSPropertyOp5
 70
     1
102
RTVSPropertyOp6
 70
     1
102
RTVSPropertyOp7
 70
     1
102
RTVSPropertyOp8
 70
     1
102
RTVSPropertyOp9
 70
     1
102
RTVSPropertyOp10
 70
     1
102
RTVSPropertyOp11
 70
     1
102
RTVSPropertyOp12
 70
     1
102
RTVSPropertyOp13
 70
     1
102
RTVSPropertyOp14
 70
     1
102
RTVSPropertyOp15
 70
     1
102
RTVSPropertyOp16
 70
     1
102
RTVSPropertyOp17
 70
     1
102
RTVSPropertyOp18
 70
     1
102
RTVSPropertyOp19
 70
     1
102
RTVSPropertyOp20
 70
     1
102
RTVSPropertyOp21
 70
     1
102
RTVSPropertyOp22
 70
     1
102
RTVSPropertyOp23
 70
     1
102
RTVSPropertyOp24
 70
     1
102
RTVSPropertyOp25
 70
     1
102
RTVSPropertyOp26
 70
     1
102
RTVSPropertyOp27
 70
     1
102
RTVSPropertyOp28
 70
     1
102
RTVSPropertyOp29
 70
     1
102
RTVSPropertyOp30
 70
     1
102
RTVSPropertyOp31
 70
     1
102
RTVSPropertyOp32
 70
     1
102
RTVSPropertyOp33
 70
     1
102
RTVSPropertyOp34
 70
     1
102
RTVSPropertyOp35
 70
     1
102
RTVSPropertyOp36
 70
     1
102
RTVSPropertyOp37
 70
     1
102
RTVSPropertyOp38
 70
     1
102
RTVSPropertyOp39
 70
     1
102
RTVSPropertyOp40
 70
     1
102
RTVSPropertyOp41
 70
     1
102
RTVSPropertyOp42
 70
     1
102
RTVSPropertyOp43
 70
     1
102
RTVSPropertyOp44
 70
     1
102
RTVSPropertyOp45
 70
     1
102
RTVSPropertyOp46
 70
     1
102
RTVSPropertyOp47
 70
     1
102
RTVSPropertyOp48
 70
     1
102
RTVSPropertyOp49
 70
     1
102
RTVSPropertyOp50
 70
     1
102
RTVSPropertyOp51
 70
     0
102
RTVSPropertyOp52
 70
     0
102
RTVSPropertyOp53
 70
     1
102
RTVSPropertyOp54
 70
     1
102
RTVSPropertyOp55
 70
     1
102
RTVSPropertyOp56
 70
     1
102
RTVSPropertyOp57
 70
     1
102
RTVSPost2010Prop28
280
     0
102
RTVSPost2010PropOp28
 70
     1
102
RTVSPost2010Prop29
280
     1
102
RTVSPost2010PropOp29
 70
     1
102
RTVSPost2010Prop30
280
     1
102
RTVSPost2010PropOp30
 70
     1
102
RTVSPost2010Prop31
280
     0
102
RTVSPost2010PropOp31
 70
     1
102
RTVSPost2010Prop32
280
     0
102
RTVSPost2010PropOp32
 70
     1
102
RTVSPost2010Prop33
280
     0
102
RTVSPost2010PropOp33
 70
     1
102
RTVSPost2010Prop34
280
     0
102
RTVSPost2010PropOp34
 70
     1
102
RTVSPost2010Prop35
280
     0
102
RTVSPost2010PropOp35
 70
     1
102
RTVSPost2010Prop36
280
     0
102
RTVSPost2010PropOp36
 70
     1
102
RTVSPost2010Prop37
 90
       50
102
RTVSPost2010PropOp37
 70
     1
102
RTVSPost2010Prop38
140
0.0
102
RTVSPost2010PropOp38
 70
     1
102
RTVSPost2010Prop39
140
1.0
102
RTVSPost2010PropOp39
 70
     1
102
RTVSPost2010Prop40
 90
        0
102
RTVSPost2010PropOp40
 70
     1
102
RTVSPost2010Prop41ColorIndex
 90
       18
102
RTVSPost2010Prop41ColorRGB
 90
        0
102
RTVSPost2010PropOp41
 70
     1
102
RTVSPost2010Prop42
 90
       50
102
RTVSPost2010PropOp42
 70
     1
102
RTVSPost2010Prop43
 90
        3
102
RTVSPost2010PropOp43
 70
     1
102
RTVSPost2010Prop44ColorIndex
 90
        5
102
RTVSPost2010Prop44ColorRGB
 90
      255
102
RTVSPost2010PropOp44
 70
     1
102
RTVSPost2010Prop45
280
     0
102
RTVSPost2010PropOp45
 70
     1
102
RTVSPost2010Prop46
 90
       50
102
RTVSPost2010PropOp46
 70
     1
102
RTVSPost2010Prop47
 90
       50
102
RTVSPost2010PropOp47
 70
     1
102
RTVSPost2010Prop48
 90
       50
102
RTVSPost2010PropOp48
 70
     1
102
RTVSPost2010Prop49
280
     0
102
RTVSPost2010PropOp49
 70
     1
102
RTVSPost2010Prop50
 90
       50
102
RTVSPost2010PropOp50
 70
     1
102
RTVSPost2010Prop51ColorIndex
 90
      256
102
RTVSPost2010Prop51ColorRGB
 90
-16777216
102
RTVSPost2010PropOp51
 70
     0
102
RTVSPost2010Prop52
140
1.0
102
RTVSPost2010PropOp52
 70
     0
102
RTVSPost2010Prop53
 90
        2
102
RTVSPost2010PropOp53
 70
     1
102
RTVSPost2010Prop54
  1
strokes_ogs.tif
102
RTVSPost2010PropOp54
 70
     1
102
RTVSPost2010Prop55
280
     0
102
RTVSPost2010PropOp55
 70
     1
102
RTVSPost2010Prop56
140
1.0
102
RTVSPost2010PropOp56
 70
     1
102
RTVSPost2010Prop57
140
1.0
102
RTVSPost2010PropOp57
 70
     1
  0
XRECORD
  5
2B8
102
{ACAD_REACTORS
330
2B7
102
}
330
2B7
100
AcDbXrecord
280
     1
102
RTVSPropertyOp0
 70
     0
102
RTVSPropertyOp1
 70
     0
102
RTVSPropertyOp2
 70
     0
102
RTVSPropertyOp3
 70
     0
102
RTVSPropertyOp4
 70
     0
102
RTVSPropertyOp5
 70
     0
102
RTVSPropertyOp6
 70
     0
102
RTVSPropertyOp7
 70
     0
102
RTVSPropertyOp8
 70
     0
102
RTVSPropertyOp9
 70
     0
102
RTVSPropertyOp10
 70
     0
102
RTVSPropertyOp11
 70
     0
102
RTVSPropertyOp12
 70
     0
102
RTVSPropertyOp13
 70
     0
102
RTVSPropertyOp14
 70
     2
102
RTVSPropertyOp15
 70
     0
102
RTVSPropertyOp16
 70
     0
102
RTVSPropertyOp17
 70
     0
102
RTVSPropertyOp18
 70
     0
102
RTVSPropertyOp19
 70
     0
102
RTVSPropertyOp20
 70
     0
102
RTVSPropertyOp21
 70
     0
102
RTVSPropertyOp22
 70
     0
102
RTVSPropertyOp23
 70
     0
102
RTVSPropertyOp24
 70
     0
102
RTVSPropertyOp25
 70
     0
102
RTVSPropertyOp26
 70
     0
102
RTVSPropertyOp27
 70
     0
102
RTVSPropertyOp28
 70
     0
102
RTVSPropertyOp29
 70
     0
102
RTVSPropertyOp30
 70
     0
102
RTVSPropertyOp31
 70
     0
102
RTVSPropertyOp32
 70
     0
102
RTVSPropertyOp33
 70
     0
102
RTVSPropertyOp34
 70
     0
102
RTVSPropertyOp35
 70
     0
102
RTVSPropertyOp36
 70
     0
102
RTVSPropertyOp37
 70
     0
102
RTVSPropertyOp38
 70
     0
102
RTVSPropertyOp39
 70
     0
102
RTVSPropertyOp40
 70
     0
102
RTVSPropertyOp41
 70
     0
102
RTVSPropertyOp42
 70
     0
102
RTVSPropertyOp43
 70
     0
102
RTVSPropertyOp44
 70
     0
102
RTVSPropertyOp45
 70
     0
102
RTVSPropertyOp46
 70
     0
102
RTVSPropertyOp47
 70
     0
102
RTVSPropertyOp48
 70
     0
102
RTVSPropertyOp49
 70
     0
102
RTVSPropertyOp50
 70
     0
102
RTVSPropertyOp51
 70
     0
102
RTVSPropertyOp52
 70
     0
102
RTVSPropertyOp53
 70
     0
102
RTVSPropertyOp54
 70
     0
102
RTVSPropertyOp55
 70
     0
102
RTVSPropertyOp56
 70
     0
102
RTVSPropertyOp57
 70
     0
102
RTVSPost2010Prop28
280
     0
102
RTVSPost2010PropOp28
 70
     0
102
RTVSPost2010Prop29
280
     1
102
RTVSPost2010PropOp29
 70
     0
102
RTVSPost2010Prop30
280
     1
102
RTVSPost2010PropOp30
 70
     0
102
RTVSPost2010Prop31
280
     0
102
RTVSPost2010PropOp31
 70
     0
102
RTVSPost2010Prop32
280
     0
102
RTVSPost2010PropOp32
 70
     0
102
RTVSPost2010Prop33
280
     0
102
RTVSPost2010PropOp33
 70
     0
102
RTVSPost2010Prop34
280
     0
102
RTVSPost2010PropOp34
 70
     0
102
RTVSPost2010Prop35
280
     0
102
RTVSPost2010PropOp35
 70
     0
102
RTVSPost2010Prop36
280
     0
102
RTVSPost2010PropOp36
 70
     0
102
RTVSPost2010Prop37
 90
       50
102
RTVSPost2010PropOp37
 70
     0
102
RTVSPost2010Prop38
140
0.0
102
RTVSPost2010PropOp38
 70
     0
102
RTVSPost2010Prop39
140
1.0
102
RTVSPost2010PropOp39
 70
     0
102
RTVSPost2010Prop40
 90
        0
102
RTVSPost2010PropOp40
 70
     0
102
RTVSPost2010Prop41ColorIndex
 90
       18
102
RTVSPost2010Prop41ColorRGB
 90
        0
102
RTVSPost2010PropOp41
 70
     0
102
RTVSPost2010Prop42
 90
       50
102
RTVSPost2010PropOp42
 70
     0
102
RTVSPost2010Prop43
 90
        3
102
RTVSPost2010PropOp43
 70
     0
102
RTVSPost2010Prop44ColorIndex
 90
        5
102
RTVSPost2010Prop44ColorRGB
 90
      255
102
RTVSPost2010PropOp44
 70
     0
102
RTVSPost2010Prop45
280
     0
102
RTVSPost2010PropOp45
 70
     0
102
RTVSPost2010Prop46
 90
       50
102
RTVSPost2010PropOp46
 70
     0
102
RTVSPost2010Prop47
 90
       50
102
RTVSPost2010PropOp47
 70
     0
102
RTVSPost2010Prop48
 90
       50
102
RTVSPost2010PropOp48
 70
     0
102
RTVSPost2010Prop49
280
     0
102
RTVSPost2010PropOp49
 70
     0
102
RTVSPost2010Prop50
 90
       50
102
RTVSPost2010PropOp50
 70
     0
102
RTVSPost2010Prop51ColorIndex
 90
      256
102
RTVSPost2010Prop51ColorRGB
 90
-16777216
102
RTVSPost2010PropOp51
 70
     0
102
RTVSPost2010Prop52
140
1.0
102
RTVSPost2010PropOp52
 70
     0
102
RTVSPost2010Prop53
 90
        2
102
RTVSPost2010PropOp53
 70
     0
102
RTVSPost2010Prop54
  1
strokes_ogs.tif
102
RTVSPost2010PropOp54
 70
     0
102
RTVSPost2010Prop55
280
     0
102
RTVSPost2010PropOp55
 70
     0
102
RTVSPost2010Prop56
140
1.0
102
RTVSPost2010PropOp56
 70
     0
102
RTVSPost2010Prop57
140
1.0
102
RTVSPost2010PropOp57
 70
     0
  0
XRECORD
  5
2A6
102
{ACAD_REACTORS
330
2A5
102
}
330
2A5
100
AcDbXrecord
280
     1
102
RTVSPropertyOp0
 70
     1
102
RTVSPropertyOp1
 70
     1
102
RTVSPropertyOp2
 70
     1
102
RTVSPropertyOp3
 70
     1
102
RTVSPropertyOp4
 70
     1
102
RTVSPropertyOp5
 70
     1
102
RTVSPropertyOp6
 70
     1
102
RTVSPropertyOp7
 70
     1
102
RTVSPropertyOp8
 70
     1
102
RTVSPropertyOp9
 70
     1
102
RTVSPropertyOp10
 70
     1
102
RTVSPropertyOp11
 70
     1
102
RTVSPropertyOp12
 70
     1
102
RTVSPropertyOp13
 70
     1
102
RTVSPropertyOp14
 70
     1
102
RTVSPropertyOp15
 70
     1
102
RTVSPropertyOp16
 70
     1
102
RTVSPropertyOp17
 70
     1
102
RTVSPropertyOp18
 70
     1
102
RTVSPropertyOp19
 70
     1
102
RTVSPropertyOp20
 70
     1
102
RTVSPropertyOp21
 70
     1
102
RTVSPropertyOp22
 70
     1
102
RTVSPropertyOp23
 70
     1
102
RTVSPropertyOp24
 70
     1
102
RTVSPropertyOp25
 70
     1
102
RTVSPropertyOp26
 70
     1
102
RTVSPropertyOp27
 70
     1
102
RTVSPropertyOp28
 70
     1
102
RTVSPropertyOp29
 70
     1
102
RTVSPropertyOp30
 70
     1
102
RTVSPropertyOp31
 70
     1
102
RTVSPropertyOp32
 70
     1
102
RTVSPropertyOp33
 70
     1
102
RTVSPropertyOp34
 70
     1
102
RTVSPropertyOp35
 70
     1
102
RTVSPropertyOp36
 70
     1
102
RTVSPropertyOp37
 70
     1
102
RTVSPropertyOp38
 70
     1
102
RTVSPropertyOp39
 70
     1
102
RTVSPropertyOp40
 70
     1
102
RTVSPropertyOp41
 70
     1
102
RTVSPropertyOp42
 70
     1
102
RTVSPropertyOp43
 70
     1
102
RTVSPropertyOp44
 70
     1
102
RTVSPropertyOp45
 70
     1
102
RTVSPropertyOp46
 70
     1
102
RTVSPropertyOp47
 70
     1
102
RTVSPropertyOp48
 70
     1
102
RTVSPropertyOp49
 70
     1
102
RTVSPropertyOp50
 70
     1
102
RTVSPropertyOp51
 70
     0
102
RTVSPropertyOp52
 70
     0
102
RTVSPropertyOp53
 70
     1
102
RTVSPropertyOp54
 70
     1
102
RTVSPropertyOp55
 70
     1
102
RTVSPropertyOp56
 70
     1
102
RTVSPropertyOp57
 70
     1
102
RTVSPost2010Prop28
280
     0
102
RTVSPost2010PropOp28
 70
     1
102
RTVSPost2010Prop29
280
     1
102
RTVSPost2010PropOp29
 70
     1
102
RTVSPost2010Prop30
280
     1
102
RTVSPost2010PropOp30
 70
     1
102
RTVSPost2010Prop31
280
     0
102
RTVSPost2010PropOp31
 70
     1
102
RTVSPost2010Prop32
280
     0
102
RTVSPost2010PropOp32
 70
     1
102
RTVSPost2010Prop33
280
     0
102
RTVSPost2010PropOp33
 70
     1
102
RTVSPost2010Prop34
280
     0
102
RTVSPost2010PropOp34
 70
     1
102
RTVSPost2010Prop35
280
     0
102
RTVSPost2010PropOp35
 70
     1
102
RTVSPost2010Prop36
280
     0
102
RTVSPost2010PropOp36
 70
     1
102
RTVSPost2010Prop37
 90
       50
102
RTVSPost2010PropOp37
 70
     1
102
RTVSPost2010Prop38
140
0.0
102
RTVSPost2010PropOp38
 70
     1
102
RTVSPost2010Prop39
140
1.0
102
RTVSPost2010PropOp39
 70
     1
102
RTVSPost2010Prop40
 90
        0
102
RTVSPost2010PropOp40
 70
     1
102
RTVSPost2010Prop41ColorIndex
 90
       18
102
RTVSPost2010Prop41ColorRGB
 90
        0
102
RTVSPost2010PropOp41
 70
     1
102
RTVSPost2010Prop42
 90
       50
102
RTVSPost2010PropOp42
 70
     1
102
RTVSPost2010Prop43
 90
        3
102
RTVSPost2010PropOp43
 70
     1
102
RTVSPost2010Prop44ColorIndex
 90
        5
102
RTVSPost2010Prop44ColorRGB
 90
      255
102
RTVSPost2010PropOp44
 70
     1
102
RTVSPost2010Prop45
280
     0
102
RTVSPost2010PropOp45
 70
     1
102
RTVSPost2010Prop46
 90
       50
102
RTVSPost2010PropOp46
 70
     1
102
RTVSPost2010Prop47
 90
       50
102
RTVSPost2010PropOp47
 70
     1
102
RTVSPost2010Prop48
 90
       50
102
RTVSPost2010PropOp48
 70
     1
102
RTVSPost2010Prop49
280
     0
102
RTVSPost2010PropOp49
 70
     1
102
RTVSPost2010Prop50
 90
       50
102
RTVSPost2010PropOp50
 70
     1
102
RTVSPost2010Prop51ColorIndex
 90
      256
102
RTVSPost2010Prop51ColorRGB
 90
-16777216
102
RTVSPost2010PropOp51
 70
     0
102
RTVSPost2010Prop52
140
1.0
102
RTVSPost2010PropOp52
 70
     0
102
RTVSPost2010Prop53
 90
        2
102
RTVSPost2010PropOp53
 70
     1
102
RTVSPost2010Prop54
  1
strokes_ogs.tif
102
RTVSPost2010PropOp54
 70
     1
102
RTVSPost2010Prop55
280
     0
102
RTVSPost2010PropOp55
 70
     1
102
RTVSPost2010Prop56
140
1.0
102
RTVSPost2010PropOp56
 70
     1
102
RTVSPost2010Prop57
140
1.0
102
RTVSPost2010PropOp57
 70
     1
  0
XRECORD
  5
2C4
102
{ACAD_REACTORS
330
2C3
102
}
330
2C3
100
AcDbXrecord
280
     1
102
RTVSPropertyOp0
 70
     1
102
RTVSPropertyOp1
 70
     1
102
RTVSPropertyOp2
 70
     1
102
RTVSPropertyOp3
 70
     1
102
RTVSPropertyOp4
 70
     1
102
RTVSPropertyOp5
 70
     1
102
RTVSPropertyOp6
 70
     1
102
RTVSPropertyOp7
 70
     1
102
RTVSPropertyOp8
 70
     1
102
RTVSPropertyOp9
 70
     1
102
RTVSPropertyOp10
 70
     1
102
RTVSPropertyOp11
 70
     1
102
RTVSPropertyOp12
 70
     1
102
RTVSPropertyOp13
 70
     1
102
RTVSPropertyOp14
 70
     1
102
RTVSPropertyOp15
 70
     1
102
RTVSPropertyOp16
 70
     1
102
RTVSPropertyOp17
 70
     1
102
RTVSPropertyOp18
 70
     1
102
RTVSPropertyOp19
 70
     1
102
RTVSPropertyOp20
 70
     1
102
RTVSPropertyOp21
 70
     1
102
RTVSPropertyOp22
 70
     1
102
RTVSPropertyOp23
 70
     1
102
RTVSPropertyOp24
 70
     1
102
RTVSPropertyOp25
 70
     1
102
RTVSPropertyOp26
 70
     1
102
RTVSPropertyOp27
 70
     1
102
RTVSPropertyOp28
 70
     1
102
RTVSPropertyOp29
 70
     1
102
RTVSPropertyOp30
 70
     1
102
RTVSPropertyOp31
 70
     1
102
RTVSPropertyOp32
 70
     1
102
RTVSPropertyOp33
 70
     1
102
RTVSPropertyOp34
 70
     1
102
RTVSPropertyOp35
 70
     1
102
RTVSPropertyOp36
 70
     1
102
RTVSPropertyOp37
 70
     1
102
RTVSPropertyOp38
 70
     1
102
RTVSPropertyOp39
 70
     1
102
RTVSPropertyOp40
 70
     1
102
RTVSPropertyOp41
 70
     1
102
RTVSPropertyOp42
 70
     1
102
RTVSPropertyOp43
 70
     1
102
RTVSPropertyOp44
 70
     1
102
RTVSPropertyOp45
 70
     1
102
RTVSPropertyOp46
 70
     1
102
RTVSPropertyOp47
 70
     1
102
RTVSPropertyOp48
 70
     1
102
RTVSPropertyOp49
 70
     1
102
RTVSPropertyOp50
 70
     1
102
RTVSPropertyOp51
 70
     0
102
RTVSPropertyOp52
 70
     0
102
RTVSPropertyOp53
 70
     1
102
RTVSPropertyOp54
 70
     1
102
RTVSPropertyOp55
 70
     1
102
RTVSPropertyOp56
 70
     1
102
RTVSPropertyOp57
 70
     1
102
RTVSPost2010Prop28
280
     0
102
RTVSPost2010PropOp28
 70
     1
102
RTVSPost2010Prop29
280
     1
102
RTVSPost2010PropOp29
 70
     1
102
RTVSPost2010Prop30
280
     1
102
RTVSPost2010PropOp30
 70
     1
102
RTVSPost2010Prop31
280
     0
102
RTVSPost2010PropOp31
 70
     1
102
RTVSPost2010Prop32
280
     0
102
RTVSPost2010PropOp32
 70
     1
102
RTVSPost2010Prop33
280
     0
102
RTVSPost2010PropOp33
 70
     1
102
RTVSPost2010Prop34
280
     0
102
RTVSPost2010PropOp34
 70
     1
102
RTVSPost2010Prop35
280
     0
102
RTVSPost2010PropOp35
 70
     1
102
RTVSPost2010Prop36
280
     0
102
RTVSPost2010PropOp36
 70
     1
102
RTVSPost2010Prop37
 90
       50
102
RTVSPost2010PropOp37
 70
     1
102
RTVSPost2010Prop38
140
0.0
102
RTVSPost2010PropOp38
 70
     1
102
RTVSPost2010Prop39
140
1.0
102
RTVSPost2010PropOp39
 70
     1
102
RTVSPost2010Prop40
 90
        0
102
RTVSPost2010PropOp40
 70
     1
102
RTVSPost2010Prop41ColorIndex
 90
       18
102
RTVSPost2010Prop41ColorRGB
 90
        0
102
RTVSPost2010PropOp41
 70
     1
102
RTVSPost2010Prop42
 90
       50
102
RTVSPost2010PropOp42
 70
     1
102
RTVSPost2010Prop43
 90
        3
102
RTVSPost2010PropOp43
 70
     1
102
RTVSPost2010Prop44ColorIndex
 90
        5
102
RTVSPost2010Prop44ColorRGB
 90
      255
102
RTVSPost2010PropOp44
 70
     1
102
RTVSPost2010Prop45
280
     0
102
RTVSPost2010PropOp45
 70
     1
102
RTVSPost2010Prop46
 90
       50
102
RTVSPost2010PropOp46
 70
     1
102
RTVSPost2010Prop47
 90
       50
102
RTVSPost2010PropOp47
 70
     1
102
RTVSPost2010Prop48
 90
       50
102
RTVSPost2010PropOp48
 70
     1
102
RTVSPost2010Prop49
280
     0
102
RTVSPost2010PropOp49
 70
     1
102
RTVSPost2010Prop50
 90
       50
102
RTVSPost2010PropOp50
 70
     1
102
RTVSPost2010Prop51ColorIndex
 90
      256
102
RTVSPost2010Prop51ColorRGB
 90
-16777216
102
RTVSPost2010PropOp51
 70
     0
102
RTVSPost2010Prop52
140
1.0
102
RTVSPost2010PropOp52
 70
     0
102
RTVSPost2010Prop53
 90
        2
102
RTVSPost2010PropOp53
 70
     1
102
RTVSPost2010Prop54
  1
strokes_ogs.tif
102
RTVSPost2010PropOp54
 70
     1
102
RTVSPost2010Prop55
280
     0
102
RTVSPost2010PropOp55
 70
     1
102
RTVSPost2010Prop56
140
1.0
102
RTVSPost2010PropOp56
 70
     1
102
RTVSPost2010Prop57
140
1.0
102
RTVSPost2010PropOp57
 70
     1
  0
XRECORD
  5
2C2
102
{ACAD_REACTORS
330
2C1
102
}
330
2C1
100
AcDbXrecord
280
     1
102
RTVSPropertyOp0
 70
     1
102
RTVSPropertyOp1
 70
     1
102
RTVSPropertyOp2
 70
     1
102
RTVSPropertyOp3
 70
     1
102
RTVSPropertyOp4
 70
     1
102
RTVSPropertyOp5
 70
     1
102
RTVSPropertyOp6
 70
     1
102
RTVSPropertyOp7
 70
     1
102
RTVSPropertyOp8
 70
     1
102
RTVSPropertyOp9
 70
     1
102
RTVSPropertyOp10
 70
     1
102
RTVSPropertyOp11
 70
     1
102
RTVSPropertyOp12
 70
     1
102
RTVSPropertyOp13
 70
     1
102
RTVSPropertyOp14
 70
     1
102
RTVSPropertyOp15
 70
     1
102
RTVSPropertyOp16
 70
     1
102
RTVSPropertyOp17
 70
     1
102
RTVSPropertyOp18
 70
     1
102
RTVSPropertyOp19
 70
     1
102
RTVSPropertyOp20
 70
     1
102
RTVSPropertyOp21
 70
     1
102
RTVSPropertyOp22
 70
     1
102
RTVSPropertyOp23
 70
     1
102
RTVSPropertyOp24
 70
     1
102
RTVSPropertyOp25
 70
     1
102
RTVSPropertyOp26
 70
     1
102
RTVSPropertyOp27
 70
     1
102
RTVSPropertyOp28
 70
     1
102
RTVSPropertyOp29
 70
     1
102
RTVSPropertyOp30
 70
     1
102
RTVSPropertyOp31
 70
     1
102
RTVSPropertyOp32
 70
     1
102
RTVSPropertyOp33
 70
     1
102
RTVSPropertyOp34
 70
     1
102
RTVSPropertyOp35
 70
     1
102
RTVSPropertyOp36
 70
     1
102
RTVSPropertyOp37
 70
     1
102
RTVSPropertyOp38
 70
     1
102
RTVSPropertyOp39
 70
     1
102
RTVSPropertyOp40
 70
     1
102
RTVSPropertyOp41
 70
     1
102
RTVSPropertyOp42
 70
     1
102
RTVSPropertyOp43
 70
     1
102
RTVSPropertyOp44
 70
     1
102
RTVSPropertyOp45
 70
     1
102
RTVSPropertyOp46
 70
     1
102
RTVSPropertyOp47
 70
     1
102
RTVSPropertyOp48
 70
     1
102
RTVSPropertyOp49
 70
     1
102
RTVSPropertyOp50
 70
     1
102
RTVSPropertyOp51
 70
     0
102
RTVSPropertyOp52
 70
     0
102
RTVSPropertyOp53
 70
     1
102
RTVSPropertyOp54
 70
     1
102
RTVSPropertyOp55
 70
     1
102
RTVSPropertyOp56
 70
     1
102
RTVSPropertyOp57
 70
     1
102
RTVSPost2010Prop28
280
     0
102
RTVSPost2010PropOp28
 70
     1
102
RTVSPost2010Prop29
280
     1
102
RTVSPost2010PropOp29
 70
     1
102
RTVSPost2010Prop30
280
     1
102
RTVSPost2010PropOp30
 70
     1
102
RTVSPost2010Prop31
280
     0
102
RTVSPost2010PropOp31
 70
     1
102
RTVSPost2010Prop32
280
     0
102
RTVSPost2010PropOp32
 70
     1
102
RTVSPost2010Prop33
280
     0
102
RTVSPost2010PropOp33
 70
     1
102
RTVSPost2010Prop34
280
     0
102
RTVSPost2010PropOp34
 70
     1
102
RTVSPost2010Prop35
280
     0
102
RTVSPost2010PropOp35
 70
     1
102
RTVSPost2010Prop36
280
     0
102
RTVSPost2010PropOp36
 70
     1
102
RTVSPost2010Prop37
 90
       50
102
RTVSPost2010PropOp37
 70
     1
102
RTVSPost2010Prop38
140
0.0
102
RTVSPost2010PropOp38
 70
     1
102
RTVSPost2010Prop39
140
1.0
102
RTVSPost2010PropOp39
 70
     1
102
RTVSPost2010Prop40
 90
        0
102
RTVSPost2010PropOp40
 70
     1
102
RTVSPost2010Prop41ColorIndex
 90
       18
102
RTVSPost2010Prop41ColorRGB
 90
        0
102
RTVSPost2010PropOp41
 70
     1
102
RTVSPost2010Prop42
 90
       50
102
RTVSPost2010PropOp42
 70
     1
102
RTVSPost2010Prop43
 90
        3
102
RTVSPost2010PropOp43
 70
     1
102
RTVSPost2010Prop44ColorIndex
 90
        5
102
RTVSPost2010Prop44ColorRGB
 90
      255
102
RTVSPost2010PropOp44
 70
     1
102
RTVSPost2010Prop45
280
     0
102
RTVSPost2010PropOp45
 70
     1
102
RTVSPost2010Prop46
 90
       50
102
RTVSPost2010PropOp46
 70
     1
102
RTVSPost2010Prop47
 90
       50
102
RTVSPost2010PropOp47
 70
     1
102
RTVSPost2010Prop48
 90
       50
102
RTVSPost2010PropOp48
 70
     1
102
RTVSPost2010Prop49
280
     0
102
RTVSPost2010PropOp49
 70
     1
102
RTVSPost2010Prop50
 90
       50
102
RTVSPost2010PropOp50
 70
     1
102
RTVSPost2010Prop51ColorIndex
 90
      256
102
RTVSPost2010Prop51ColorRGB
 90
-16777216
102
RTVSPost2010PropOp51
 70
     0
102
RTVSPost2010Prop52
140
1.0
102
RTVSPost2010PropOp52
 70
     0
102
RTVSPost2010Prop53
 90
        2
102
RTVSPost2010PropOp53
 70
     1
102
RTVSPost2010Prop54
  1
strokes_ogs.tif
102
RTVSPost2010PropOp54
 70
     1
102
RTVSPost2010Prop55
280
     0
102
RTVSPost2010PropOp55
 70
     1
102
RTVSPost2010Prop56
140
1.0
102
RTVSPost2010PropOp56
 70
     1
102
RTVSPost2010Prop57
140
1.0
102
RTVSPost2010PropOp57
 70
     1
  0
XRECORD
  5
2BC
102
{ACAD_REACTORS
330
2BB
102
}
330
2BB
100
AcDbXrecord
280
     1
102
RTVSPropertyOp0
 70
     1
102
RTVSPropertyOp1
 70
     1
102
RTVSPropertyOp2
 70
     1
102
RTVSPropertyOp3
 70
     1
102
RTVSPropertyOp4
 70
     1
102
RTVSPropertyOp5
 70
     1
102
RTVSPropertyOp6
 70
     1
102
RTVSPropertyOp7
 70
     1
102
RTVSPropertyOp8
 70
     1
102
RTVSPropertyOp9
 70
     1
102
RTVSPropertyOp10
 70
     1
102
RTVSPropertyOp11
 70
     1
102
RTVSPropertyOp12
 70
     1
102
RTVSPropertyOp13
 70
     1
102
RTVSPropertyOp14
 70
     1
102
RTVSPropertyOp15
 70
     1
102
RTVSPropertyOp16
 70
     1
102
RTVSPropertyOp17
 70
     1
102
RTVSPropertyOp18
 70
     1
102
RTVSPropertyOp19
 70
     1
102
RTVSPropertyOp20
 70
     1
102
RTVSPropertyOp21
 70
     1
102
RTVSPropertyOp22
 70
     1
102
RTVSPropertyOp23
 70
     1
102
RTVSPropertyOp24
 70
     1
102
RTVSPropertyOp25
 70
     1
102
RTVSPropertyOp26
 70
     1
102
RTVSPropertyOp27
 70
     1
102
RTVSPropertyOp28
 70
     1
102
RTVSPropertyOp29
 70
     1
102
RTVSPropertyOp30
 70
     1
102
RTVSPropertyOp31
 70
     1
102
RTVSPropertyOp32
 70
     1
102
RTVSPropertyOp33
 70
     1
102
RTVSPropertyOp34
 70
     1
102
RTVSPropertyOp35
 70
     1
102
RTVSPropertyOp36
 70
     1
102
RTVSPropertyOp37
 70
     1
102
RTVSPropertyOp38
 70
     1
102
RTVSPropertyOp39
 70
     1
102
RTVSPropertyOp40
 70
     1
102
RTVSPropertyOp41
 70
     1
102
RTVSPropertyOp42
 70
     1
102
RTVSPropertyOp43
 70
     1
102
RTVSPropertyOp44
 70
     1
102
RTVSPropertyOp45
 70
     1
102
RTVSPropertyOp46
 70
     1
102
RTVSPropertyOp47
 70
     1
102
RTVSPropertyOp48
 70
     1
102
RTVSPropertyOp49
 70
     1
102
RTVSPropertyOp50
 70
     1
102
RTVSPropertyOp51
 70
     0
102
RTVSPropertyOp52
 70
     0
102
RTVSPropertyOp53
 70
     1
102
RTVSPropertyOp54
 70
     1
102
RTVSPropertyOp55
 70
     1
102
RTVSPropertyOp56
 70
     1
102
RTVSPropertyOp57
 70
     1
102
RTVSPost2010Prop28
280
     0
102
RTVSPost2010PropOp28
 70
     1
102
RTVSPost2010Prop29
280
     1
102
RTVSPost2010PropOp29
 70
     1
102
RTVSPost2010Prop30
280
     1
102
RTVSPost2010PropOp30
 70
     1
102
RTVSPost2010Prop31
280
     0
102
RTVSPost2010PropOp31
 70
     1
102
RTVSPost2010Prop32
280
     0
102
RTVSPost2010PropOp32
 70
     1
102
RTVSPost2010Prop33
280
     0
102
RTVSPost2010PropOp33
 70
     1
102
RTVSPost2010Prop34
280
     0
102
RTVSPost2010PropOp34
 70
     1
102
RTVSPost2010Prop35
280
     0
102
RTVSPost2010PropOp35
 70
     1
102
RTVSPost2010Prop36
280
     0
102
RTVSPost2010PropOp36
 70
     1
102
RTVSPost2010Prop37
 90
       50
102
RTVSPost2010PropOp37
 70
     1
102
RTVSPost2010Prop38
140
0.0
102
RTVSPost2010PropOp38
 70
     1
102
RTVSPost2010Prop39
140
1.0
102
RTVSPost2010PropOp39
 70
     1
102
RTVSPost2010Prop40
 90
        0
102
RTVSPost2010PropOp40
 70
     1
102
RTVSPost2010Prop41ColorIndex
 90
       18
102
RTVSPost2010Prop41ColorRGB
 90
        0
102
RTVSPost2010PropOp41
 70
     1
102
RTVSPost2010Prop42
 90
       50
102
RTVSPost2010PropOp42
 70
     1
102
RTVSPost2010Prop43
 90
        3
102
RTVSPost2010PropOp43
 70
     1
102
RTVSPost2010Prop44ColorIndex
 90
        5
102
RTVSPost2010Prop44ColorRGB
 90
      255
102
RTVSPost2010PropOp44
 70
     1
102
RTVSPost2010Prop45
280
     0
102
RTVSPost2010PropOp45
 70
     1
102
RTVSPost2010Prop46
 90
       50
102
RTVSPost2010PropOp46
 70
     1
102
RTVSPost2010Prop47
 90
       50
102
RTVSPost2010PropOp47
 70
     1
102
RTVSPost2010Prop48
 90
       50
102
RTVSPost2010PropOp48
 70
     1
102
RTVSPost2010Prop49
280
     0
102
RTVSPost2010PropOp49
 70
     1
102
RTVSPost2010Prop50
 90
       50
102
RTVSPost2010PropOp50
 70
     1
102
RTVSPost2010Prop51ColorIndex
 90
      256
102
RTVSPost2010Prop51ColorRGB
 90
-16777216
102
RTVSPost2010PropOp51
 70
     0
102
RTVSPost2010Prop52
140
1.0
102
RTVSPost2010PropOp52
 70
     0
102
RTVSPost2010Prop53
 90
        2
102
RTVSPost2010PropOp53
 70
     1
102
RTVSPost2010Prop54
  1
strokes_ogs.tif
102
RTVSPost2010PropOp54
 70
     1
102
RTVSPost2010Prop55
280
     0
102
RTVSPost2010PropOp55
 70
     1
102
RTVSPost2010Prop56
140
1.0
102
RTVSPost2010PropOp56
 70
     1
102
RTVSPost2010Prop57
140
1.0
102
RTVSPost2010PropOp57
 70
     1
  0
XRECORD
  5
2BE
102
{ACAD_REACTORS
330
2BD
102
}
330
2BD
100
AcDbXrecord
280
     1
102
RTVSPropertyOp0
 70
     1
102
RTVSPropertyOp1
 70
     1
102
RTVSPropertyOp2
 70
     1
102
RTVSPropertyOp3
 70
     1
102
RTVSPropertyOp4
 70
     1
102
RTVSPropertyOp5
 70
     1
102
RTVSPropertyOp6
 70
     1
102
RTVSPropertyOp7
 70
     1
102
RTVSPropertyOp8
 70
     1
102
RTVSPropertyOp9
 70
     1
102
RTVSPropertyOp10
 70
     1
102
RTVSPropertyOp11
 70
     1
102
RTVSPropertyOp12
 70
     1
102
RTVSPropertyOp13
 70
     1
102
RTVSPropertyOp14
 70
     1
102
RTVSPropertyOp15
 70
     1
102
RTVSPropertyOp16
 70
     1
102
RTVSPropertyOp17
 70
     1
102
RTVSPropertyOp18
 70
     1
102
RTVSPropertyOp19
 70
     1
102
RTVSPropertyOp20
 70
     1
102
RTVSPropertyOp21
 70
     1
102
RTVSPropertyOp22
 70
     1
102
RTVSPropertyOp23
 70
     1
102
RTVSPropertyOp24
 70
     1
102
RTVSPropertyOp25
 70
     1
102
RTVSPropertyOp26
 70
     1
102
RTVSPropertyOp27
 70
     1
102
RTVSPropertyOp28
 70
     1
102
RTVSPropertyOp29
 70
     1
102
RTVSPropertyOp30
 70
     1
102
RTVSPropertyOp31
 70
     1
102
RTVSPropertyOp32
 70
     1
102
RTVSPropertyOp33
 70
     1
102
RTVSPropertyOp34
 70
     1
102
RTVSPropertyOp35
 70
     1
102
RTVSPropertyOp36
 70
     1
102
RTVSPropertyOp37
 70
     1
102
RTVSPropertyOp38
 70
     1
102
RTVSPropertyOp39
 70
     1
102
RTVSPropertyOp40
 70
     1
102
RTVSPropertyOp41
 70
     1
102
RTVSPropertyOp42
 70
     1
102
RTVSPropertyOp43
 70
     1
102
RTVSPropertyOp44
 70
     1
102
RTVSPropertyOp45
 70
     1
102
RTVSPropertyOp46
 70
     1
102
RTVSPropertyOp47
 70
     1
102
RTVSPropertyOp48
 70
     1
102
RTVSPropertyOp49
 70
     1
102
RTVSPropertyOp50
 70
     1
102
RTVSPropertyOp51
 70
     0
102
RTVSPropertyOp52
 70
     0
102
RTVSPropertyOp53
 70
     1
102
RTVSPropertyOp54
 70
     1
102
RTVSPropertyOp55
 70
     1
102
RTVSPropertyOp56
 70
     1
102
RTVSPropertyOp57
 70
     1
102
RTVSPost2010Prop28
280
     0
102
RTVSPost2010PropOp28
 70
     1
102
RTVSPost2010Prop29
280
     1
102
RTVSPost2010PropOp29
 70
     1
102
RTVSPost2010Prop30
280
     1
102
RTVSPost2010PropOp30
 70
     1
102
RTVSPost2010Prop31
280
     0
102
RTVSPost2010PropOp31
 70
     1
102
RTVSPost2010Prop32
280
     0
102
RTVSPost2010PropOp32
 70
     1
102
RTVSPost2010Prop33
280
     0
102
RTVSPost2010PropOp33
 70
     1
102
RTVSPost2010Prop34
280
     0
102
RTVSPost2010PropOp34
 70
     1
102
RTVSPost2010Prop35
280
     0
102
RTVSPost2010PropOp35
 70
     1
102
RTVSPost2010Prop36
280
     0
102
RTVSPost2010PropOp36
 70
     1
102
RTVSPost2010Prop37
 90
       50
102
RTVSPost2010PropOp37
 70
     1
102
RTVSPost2010Prop38
140
0.0
102
RTVSPost2010PropOp38
 70
     1
102
RTVSPost2010Prop39
140
1.0
102
RTVSPost2010PropOp39
 70
     1
102
RTVSPost2010Prop40
 90
        0
102
RTVSPost2010PropOp40
 70
     1
102
RTVSPost2010Prop41ColorIndex
 90
       18
102
RTVSPost2010Prop41ColorRGB
 90
        0
102
RTVSPost2010PropOp41
 70
     1
102
RTVSPost2010Prop42
 90
       50
102
RTVSPost2010PropOp42
 70
     1
102
RTVSPost2010Prop43
 90
        3
102
RTVSPost2010PropOp43
 70
     1
102
RTVSPost2010Prop44ColorIndex
 90
        5
102
RTVSPost2010Prop44ColorRGB
 90
      255
102
RTVSPost2010PropOp44
 70
     1
102
RTVSPost2010Prop45
280
     0
102
RTVSPost2010PropOp45
 70
     1
102
RTVSPost2010Prop46
 90
       50
102
RTVSPost2010PropOp46
 70
     1
102
RTVSPost2010Prop47
 90
       50
102
RTVSPost2010PropOp47
 70
     1
102
RTVSPost2010Prop48
 90
       50
102
RTVSPost2010PropOp48
 70
     1
102
RTVSPost2010Prop49
280
     0
102
RTVSPost2010PropOp49
 70
     1
102
RTVSPost2010Prop50
 90
       50
102
RTVSPost2010PropOp50
 70
     1
102
RTVSPost2010Prop51ColorIndex
 90
      256
102
RTVSPost2010Prop51ColorRGB
 90
-16777216
102
RTVSPost2010PropOp51
 70
     0
102
RTVSPost2010Prop52
140
1.0
102
RTVSPost2010PropOp52
 70
     0
102
RTVSPost2010Prop53
 90
        2
102
RTVSPost2010PropOp53
 70
     1
102
RTVSPost2010Prop54
  1
strokes_ogs.tif
102
RTVSPost2010PropOp54
 70
     1
102
RTVSPost2010Prop55
280
     0
102
RTVSPost2010PropOp55
 70
     1
102
RTVSPost2010Prop56
140
1.0
102
RTVSPost2010PropOp56
 70
     1
102
RTVSPost2010Prop57
140
1.0
102
RTVSPost2010PropOp57
 70
     1
  0
XRECORD
  5
2AE
102
{ACAD_REACTORS
330
2AD
102
}
330
2AD
100
AcDbXrecord
280
     1
102
RTVSPropertyOp0
 70
     1
102
RTVSPropertyOp1
 70
     1
102
RTVSPropertyOp2
 70
     1
102
RTVSPropertyOp3
 70
     1
102
RTVSPropertyOp4
 70
     1
102
RTVSPropertyOp5
 70
     1
102
RTVSPropertyOp6
 70
     1
102
RTVSPropertyOp7
 70
     1
102
RTVSPropertyOp8
 70
     1
102
RTVSPropertyOp9
 70
     1
102
RTVSPropertyOp10
 70
     1
102
RTVSPropertyOp11
 70
     1
102
RTVSPropertyOp12
 70
     1
102
RTVSPropertyOp13
 70
     1
102
RTVSPropertyOp14
 70
     1
102
RTVSPropertyOp15
 70
     1
102
RTVSPropertyOp16
 70
     1
102
RTVSPropertyOp17
 70
     1
102
RTVSPropertyOp18
 70
     1
102
RTVSPropertyOp19
 70
     1
102
RTVSPropertyOp20
 70
     1
102
RTVSPropertyOp21
 70
     1
102
RTVSPropertyOp22
 70
     1
102
RTVSPropertyOp23
 70
     1
102
RTVSPropertyOp24
 70
     1
102
RTVSPropertyOp25
 70
     1
102
RTVSPropertyOp26
 70
     1
102
RTVSPropertyOp27
 70
     1
102
RTVSPropertyOp28
 70
     1
102
RTVSPropertyOp29
 70
     1
102
RTVSPropertyOp30
 70
     1
102
RTVSPropertyOp31
 70
     1
102
RTVSPropertyOp32
 70
     1
102
RTVSPropertyOp33
 70
     1
102
RTVSPropertyOp34
 70
     1
102
RTVSPropertyOp35
 70
     1
102
RTVSPropertyOp36
 70
     1
102
RTVSPropertyOp37
 70
     1
102
RTVSPropertyOp38
 70
     1
102
RTVSPropertyOp39
 70
     1
102
RTVSPropertyOp40
 70
     1
102
RTVSPropertyOp41
 70
     1
102
RTVSPropertyOp42
 70
     1
102
RTVSPropertyOp43
 70
     1
102
RTVSPropertyOp44
 70
     1
102
RTVSPropertyOp45
 70
     1
102
RTVSPropertyOp46
 70
     1
102
RTVSPropertyOp47
 70
     1
102
RTVSPropertyOp48
 70
     1
102
RTVSPropertyOp49
 70
     1
102
RTVSPropertyOp50
 70
     1
102
RTVSPropertyOp51
 70
     0
102
RTVSPropertyOp52
 70
     0
102
RTVSPropertyOp53
 70
     1
102
RTVSPropertyOp54
 70
     1
102
RTVSPropertyOp55
 70
     1
102
RTVSPropertyOp56
 70
     1
102
RTVSPropertyOp57
 70
     1
102
RTVSPost2010Prop28
280
     0
102
RTVSPost2010PropOp28
 70
     1
102
RTVSPost2010Prop29
280
     1
102
RTVSPost2010PropOp29
 70
     1
102
RTVSPost2010Prop30
280
     1
102
RTVSPost2010PropOp30
 70
     1
102
RTVSPost2010Prop31
280
     0
102
RTVSPost2010PropOp31
 70
     1
102
RTVSPost2010Prop32
280
     0
102
RTVSPost2010PropOp32
 70
     1
102
RTVSPost2010Prop33
280
     0
102
RTVSPost2010PropOp33
 70
     1
102
RTVSPost2010Prop34
280
     0
102
RTVSPost2010PropOp34
 70
     1
102
RTVSPost2010Prop35
280
     0
102
RTVSPost2010PropOp35
 70
     1
102
RTVSPost2010Prop36
280
     0
102
RTVSPost2010PropOp36
 70
     1
102
RTVSPost2010Prop37
 90
       50
102
RTVSPost2010PropOp37
 70
     1
102
RTVSPost2010Prop38
140
0.0
102
RTVSPost2010PropOp38
 70
     1
102
RTVSPost2010Prop39
140
1.0
102
RTVSPost2010PropOp39
 70
     1
102
RTVSPost2010Prop40
 90
        0
102
RTVSPost2010PropOp40
 70
     1
102
RTVSPost2010Prop41ColorIndex
 90
       18
102
RTVSPost2010Prop41ColorRGB
 90
        0
102
RTVSPost2010PropOp41
 70
     1
102
RTVSPost2010Prop42
 90
       50
102
RTVSPost2010PropOp42
 70
     1
102
RTVSPost2010Prop43
 90
        3
102
RTVSPost2010PropOp43
 70
     1
102
RTVSPost2010Prop44ColorIndex
 90
        5
102
RTVSPost2010Prop44ColorRGB
 90
      255
102
RTVSPost2010PropOp44
 70
     1
102
RTVSPost2010Prop45
280
     0
102
RTVSPost2010PropOp45
 70
     1
102
RTVSPost2010Prop46
 90
       50
102
RTVSPost2010PropOp46
 70
     1
102
RTVSPost2010Prop47
 90
       50
102
RTVSPost2010PropOp47
 70
     1
102
RTVSPost2010Prop48
 90
       50
102
RTVSPost2010PropOp48
 70
     1
102
RTVSPost2010Prop49
280
     0
102
RTVSPost2010PropOp49
 70
     1
102
RTVSPost2010Prop50
 90
       50
102
RTVSPost2010PropOp50
 70
     1
102
RTVSPost2010Prop51ColorIndex
 90
      256
102
RTVSPost2010Prop51ColorRGB
 90
-16777216
102
RTVSPost2010PropOp51
 70
     0
102
RTVSPost2010Prop52
140
1.0
102
RTVSPost2010PropOp52
 70
     0
102
RTVSPost2010Prop53
 90
        2
102
RTVSPost2010PropOp53
 70
     1
102
RTVSPost2010Prop54
  1
strokes_ogs.tif
102
RTVSPost2010PropOp54
 70
     1
102
RTVSPost2010Prop55
280
     0
102
RTVSPost2010PropOp55
 70
     1
102
RTVSPost2010Prop56
140
1.0
102
RTVSPost2010PropOp56
 70
     1
102
RTVSPost2010Prop57
140
1.0
102
RTVSPost2010PropOp57
 70
     1
  0
XRECORD
  5
2A0
102
{ACAD_REACTORS
330
29F
102
}
330
29F
100
AcDbXrecord
280
     1
102
RTVSPropertyOp0
 70
     1
102
RTVSPropertyOp1
 70
     1
102
RTVSPropertyOp2
 70
     1
102
RTVSPropertyOp3
 70
     1
102
RTVSPropertyOp4
 70
     1
102
RTVSPropertyOp5
 70
     1
102
RTVSPropertyOp6
 70
     1
102
RTVSPropertyOp7
 70
     1
102
RTVSPropertyOp8
 70
     1
102
RTVSPropertyOp9
 70
     1
102
RTVSPropertyOp10
 70
     1
102
RTVSPropertyOp11
 70
     1
102
RTVSPropertyOp12
 70
     1
102
RTVSPropertyOp13
 70
     1
102
RTVSPropertyOp14
 70
     1
102
RTVSPropertyOp15
 70
     1
102
RTVSPropertyOp16
 70
     1
102
RTVSPropertyOp17
 70
     1
102
RTVSPropertyOp18
 70
     1
102
RTVSPropertyOp19
 70
     1
102
RTVSPropertyOp20
 70
     1
102
RTVSPropertyOp21
 70
     1
102
RTVSPropertyOp22
 70
     1
102
RTVSPropertyOp23
 70
     1
102
RTVSPropertyOp24
 70
     1
102
RTVSPropertyOp25
 70
     1
102
RTVSPropertyOp26
 70
     1
102
RTVSPropertyOp27
 70
     1
102
RTVSPropertyOp28
 70
     1
102
RTVSPropertyOp29
 70
     1
102
RTVSPropertyOp30
 70
     1
102
RTVSPropertyOp31
 70
     1
102
RTVSPropertyOp32
 70
     1
102
RTVSPropertyOp33
 70
     1
102
RTVSPropertyOp34
 70
     1
102
RTVSPropertyOp35
 70
     1
102
RTVSPropertyOp36
 70
     1
102
RTVSPropertyOp37
 70
     1
102
RTVSPropertyOp38
 70
     1
102
RTVSPropertyOp39
 70
     1
102
RTVSPropertyOp40
 70
     1
102
RTVSPropertyOp41
 70
     1
102
RTVSPropertyOp42
 70
     1
102
RTVSPropertyOp43
 70
     1
102
RTVSPropertyOp44
 70
     1
102
RTVSPropertyOp45
 70
     1
102
RTVSPropertyOp46
 70
     1
102
RTVSPropertyOp47
 70
     1
102
RTVSPropertyOp48
 70
     1
102
RTVSPropertyOp49
 70
     1
102
RTVSPropertyOp50
 70
     1
102
RTVSPropertyOp51
 70
     0
102
RTVSPropertyOp52
 70
     0
102
RTVSPropertyOp53
 70
     1
102
RTVSPropertyOp54
 70
     1
102
RTVSPropertyOp55
 70
     1
102
RTVSPropertyOp56
 70
     1
102
RTVSPropertyOp57
 70
     1
102
RTVSPost2010Prop28
280
     0
102
RTVSPost2010PropOp28
 70
     1
102
RTVSPost2010Prop29
280
     1
102
RTVSPost2010PropOp29
 70
     1
102
RTVSPost2010Prop30
280
     1
102
RTVSPost2010PropOp30
 70
     1
102
RTVSPost2010Prop31
280
     0
102
RTVSPost2010PropOp31
 70
     1
102
RTVSPost2010Prop32
280
     0
102
RTVSPost2010PropOp32
 70
     1
102
RTVSPost2010Prop33
280
     0
102
RTVSPost2010PropOp33
 70
     1
102
RTVSPost2010Prop34
280
     0
102
RTVSPost2010PropOp34
 70
     1
102
RTVSPost2010Prop35
280
     0
102
RTVSPost2010PropOp35
 70
     1
102
RTVSPost2010Prop36
280
     0
102
RTVSPost2010PropOp36
 70
     1
102
RTVSPost2010Prop37
 90
       50
102
RTVSPost2010PropOp37
 70
     1
102
RTVSPost2010Prop38
140
0.0
102
RTVSPost2010PropOp38
 70
     1
102
RTVSPost2010Prop39
140
1.0
102
RTVSPost2010PropOp39
 70
     1
102
RTVSPost2010Prop40
 90
        0
102
RTVSPost2010PropOp40
 70
     1
102
RTVSPost2010Prop41ColorIndex
 90
       18
102
RTVSPost2010Prop41ColorRGB
 90
        0
102
RTVSPost2010PropOp41
 70
     1
102
RTVSPost2010Prop42
 90
       50
102
RTVSPost2010PropOp42
 70
     1
102
RTVSPost2010Prop43
 90
        3
102
RTVSPost2010PropOp43
 70
     1
102
RTVSPost2010Prop44ColorIndex
 90
        5
102
RTVSPost2010Prop44ColorRGB
 90
      255
102
RTVSPost2010PropOp44
 70
     1
102
RTVSPost2010Prop45
280
     0
102
RTVSPost2010PropOp45
 70
     1
102
RTVSPost2010Prop46
 90
       50
102
RTVSPost2010PropOp46
 70
     1
102
RTVSPost2010Prop47
 90
       50
102
RTVSPost2010PropOp47
 70
     1
102
RTVSPost2010Prop48
 90
       50
102
RTVSPost2010PropOp48
 70
     1
102
RTVSPost2010Prop49
280
     0
102
RTVSPost2010PropOp49
 70
     1
102
RTVSPost2010Prop50
 90
       50
102
RTVSPost2010PropOp50
 70
     1
102
RTVSPost2010Prop51ColorIndex
 90
      256
102
RTVSPost2010Prop51ColorRGB
 90
-16777216
102
RTVSPost2010PropOp51
 70
     0
102
RTVSPost2010Prop52
140
1.0
102
RTVSPost2010PropOp52
 70
     0
102
RTVSPost2010Prop53
 90
        2
102
RTVSPost2010PropOp53
 70
     1
102
RTVSPost2010Prop54
  1
strokes_ogs.tif
102
RTVSPost2010PropOp54
 70
     1
102
RTVSPost2010Prop55
280
     0
102
RTVSPost2010PropOp55
 70
     1
102
RTVSPost2010Prop56
140
1.0
102
RTVSPost2010PropOp56
 70
     1
102
RTVSPost2010Prop57
140
1.0
102
RTVSPost2010PropOp57
 70
     1
  0
XRECORD
  5
2C0
102
{ACAD_REACTORS
330
2BF
102
}
330
2BF
100
AcDbXrecord
280
     1
102
RTVSPropertyOp0
 70
     1
102
RTVSPropertyOp1
 70
     1
102
RTVSPropertyOp2
 70
     1
102
RTVSPropertyOp3
 70
     1
102
RTVSPropertyOp4
 70
     1
102
RTVSPropertyOp5
 70
     1
102
RTVSPropertyOp6
 70
     1
102
RTVSPropertyOp7
 70
     1
102
RTVSPropertyOp8
 70
     1
102
RTVSPropertyOp9
 70
     1
102
RTVSPropertyOp10
 70
     1
102
RTVSPropertyOp11
 70
     1
102
RTVSPropertyOp12
 70
     1
102
RTVSPropertyOp13
 70
     1
102
RTVSPropertyOp14
 70
     1
102
RTVSPropertyOp15
 70
     1
102
RTVSPropertyOp16
 70
     1
102
RTVSPropertyOp17
 70
     1
102
RTVSPropertyOp18
 70
     1
102
RTVSPropertyOp19
 70
     1
102
RTVSPropertyOp20
 70
     1
102
RTVSPropertyOp21
 70
     1
102
RTVSPropertyOp22
 70
     1
102
RTVSPropertyOp23
 70
     1
102
RTVSPropertyOp24
 70
     1
102
RTVSPropertyOp25
 70
     1
102
RTVSPropertyOp26
 70
     1
102
RTVSPropertyOp27
 70
     1
102
RTVSPropertyOp28
 70
     1
102
RTVSPropertyOp29
 70
     1
102
RTVSPropertyOp30
 70
     1
102
RTVSPropertyOp31
 70
     1
102
RTVSPropertyOp32
 70
     1
102
RTVSPropertyOp33
 70
     1
102
RTVSPropertyOp34
 70
     1
102
RTVSPropertyOp35
 70
     1
102
RTVSPropertyOp36
 70
     1
102
RTVSPropertyOp37
 70
     1
102
RTVSPropertyOp38
 70
     1
102
RTVSPropertyOp39
 70
     1
102
RTVSPropertyOp40
 70
     1
102
RTVSPropertyOp41
 70
     1
102
RTVSPropertyOp42
 70
     1
102
RTVSPropertyOp43
 70
     1
102
RTVSPropertyOp44
 70
     1
102
RTVSPropertyOp45
 70
     1
102
RTVSPropertyOp46
 70
     1
102
RTVSPropertyOp47
 70
     1
102
RTVSPropertyOp48
 70
     1
102
RTVSPropertyOp49
 70
     1
102
RTVSPropertyOp50
 70
     1
102
RTVSPropertyOp51
 70
     0
102
RTVSPropertyOp52
 70
     0
102
RTVSPropertyOp53
 70
     1
102
RTVSPropertyOp54
 70
     1
102
RTVSPropertyOp55
 70
     1
102
RTVSPropertyOp56
 70
     1
102
RTVSPropertyOp57
 70
     1
102
RTVSPost2010Prop28
280
     0
102
RTVSPost2010PropOp28
 70
     1
102
RTVSPost2010Prop29
280
     1
102
RTVSPost2010PropOp29
 70
     1
102
RTVSPost2010Prop30
280
     1
102
RTVSPost2010PropOp30
 70
     1
102
RTVSPost2010Prop31
280
     0
102
RTVSPost2010PropOp31
 70
     1
102
RTVSPost2010Prop32
280
     0
102
RTVSPost2010PropOp32
 70
     1
102
RTVSPost2010Prop33
280
     0
102
RTVSPost2010PropOp33
 70
     1
102
RTVSPost2010Prop34
280
     0
102
RTVSPost2010PropOp34
 70
     1
102
RTVSPost2010Prop35
280
     0
102
RTVSPost2010PropOp35
 70
     1
102
RTVSPost2010Prop36
280
     0
102
RTVSPost2010PropOp36
 70
     1
102
RTVSPost2010Prop37
 90
       50
102
RTVSPost2010PropOp37
 70
     1
102
RTVSPost2010Prop38
140
0.0
102
RTVSPost2010PropOp38
 70
     1
102
RTVSPost2010Prop39
140
1.0
102
RTVSPost2010PropOp39
 70
     1
102
RTVSPost2010Prop40
 90
        0
102
RTVSPost2010PropOp40
 70
     1
102
RTVSPost2010Prop41ColorIndex
 90
       18
102
RTVSPost2010Prop41ColorRGB
 90
        0
102
RTVSPost2010PropOp41
 70
     1
102
RTVSPost2010Prop42
 90
       50
102
RTVSPost2010PropOp42
 70
     1
102
RTVSPost2010Prop43
 90
        3
102
RTVSPost2010PropOp43
 70
     1
102
RTVSPost2010Prop44ColorIndex
 90
        5
102
RTVSPost2010Prop44ColorRGB
 90
      255
102
RTVSPost2010PropOp44
 70
     1
102
RTVSPost2010Prop45
280
     0
102
RTVSPost2010PropOp45
 70
     1
102
RTVSPost2010Prop46
 90
       50
102
RTVSPost2010PropOp46
 70
     1
102
RTVSPost2010Prop47
 90
       50
102
RTVSPost2010PropOp47
 70
     1
102
RTVSPost2010Prop48
 90
       50
102
RTVSPost2010PropOp48
 70
     1
102
RTVSPost2010Prop49
280
     0
102
RTVSPost2010PropOp49
 70
     1
102
RTVSPost2010Prop50
 90
       50
102
RTVSPost2010PropOp50
 70
     1
102
RTVSPost2010Prop51ColorIndex
 90
      256
102
RTVSPost2010Prop51ColorRGB
 90
-16777216
102
RTVSPost2010PropOp51
 70
     0
102
RTVSPost2010Prop52
140
1.0
102
RTVSPost2010PropOp52
 70
     0
102
RTVSPost2010Prop53
 90
        2
102
RTVSPost2010PropOp53
 70
     1
102
RTVSPost2010Prop54
  1
strokes_ogs.tif
102
RTVSPost2010PropOp54
 70
     1
102
RTVSPost2010Prop55
280
     0
102
RTVSPost2010PropOp55
 70
     1
102
RTVSPost2010Prop56
140
1.0
102
RTVSPost2010PropOp56
 70
     1
102
RTVSPost2010Prop57
140
1.0
102
RTVSPost2010PropOp57
 70
     1
  0
ENDSEC
  0
EOF
