  0
SECTION
  2
HEADER
  9
$ACADVER
  1
AC1018
  9
$ACADMAINTVER
 70
     0
  9
$DWGCODEPAGE
  3
ANSI_932
  9
$INSBASE
 10
0.0
 20
0.0
 30
0.0
  9
$EXTMIN
 10
-2100.0
 20
-1485.0
 30
0.0
  9
$EXTMAX
 10
2100.0
 20
1485.0
 30
0.0
  9
$LIMMIN
 10
-2100.0
 20
-1485.0
  9
$LIMMAX
 10
2100.0
 20
1485.0
  9
$ORTHOMODE
 70
     0
  9
$REGENMODE
 70
     1
  9
$FILLMODE
 70
     1
  9
$QTEXTMODE
 70
     0
  9
$MIRRTEXT
 70
     1
  9
$LTSCALE
 40
10.0
  9
$ATTMODE
 70
     1
  9
$TEXTSIZE
 40
2.5
  9
$TRACEWID
 40
1.0
  9
$TEXTSTYLE
  7
Standard
  9
$CLAYER
  8
0
  9
$CELTYPE
  6
ByLayer
  9
$CECOLOR
 62
   256
  9
$CELTSCALE
 40
1.0
  9
$DISPSILH
 70
     0
  9
$DIMSCALE
 40
1.0
  9
$DIMASZ
 40
2.5
  9
$DIMEXO
 40
0.625
  9
$DIMDLI
 40
3.75
  9
$DIMRND
 40
0.0
  9
$DIMDLE
 40
0.0
  9
$DIMEXE
 40
1.25
  9
$DIMTP
 40
0.0
  9
$DIMTM
 40
0.0
  9
$DIMTXT
 40
2.5
  9
$DIMCEN
 40
2.5
  9
$DIMTSZ
 40
0.0
  9
$DIMTOL
 70
     0
  9
$DIMLIM
 70
     0
  9
$DIMTIH
 70
     0
  9
$DIMTOH
 70
     0
  9
$DIMSE1
 70
     0
  9
$DIMSE2
 70
     0
  9
$DIMTAD
 70
     1
  9
$DIMZIN
 70
     8
  9
$DIMBLK
  1

  9
$DIMASO
 70
     1
  9
$DIMSHO
 70
     1
  9
$DIMPOST
  1

  9
$DIMAPOST
  1

  9
$DIMALT
 70
     0
  9
$DIMALTD
 70
     3
  9
$DIMALTF
 40
0.03937007874016
  9
$DIMLFAC
 40
1.0
  9
$DIMTOFL
 70
     1
  9
$DIMTVP
 40
0.0
  9
$DIMTIX
 70
     0
  9
$DIMSOXD
 70
     0
  9
$DIMSAH
 70
     0
  9
$DIMBLK1
  1

  9
$DIMBLK2
  1

  9
$DIMSTYLE
  2
ISO-25
  9
$DIMCLRD
 70
     0
  9
$DIMCLRE
 70
     0
  9
$DIMCLRT
 70
     0
  9
$DIMTFAC
 40
1.0
  9
$DIMGAP
 40
0.625
  9
$DIMJUST
 70
     0
  9
$DIMSD1
 70
     0
  9
$DIMSD2
 70
     0
  9
$DIMTOLJ
 70
     0
  9
$DIMTZIN
 70
     8
  9
$DIMALTZ
 70
     0
  9
$DIMALTTZ
 70
     0
  9
$DIMUPT
 70
     0
  9
$DIMDEC
 70
     2
  9
$DIMTDEC
 70
     2
  9
$DIMALTU
 70
     2
  9
$DIMALTTD
 70
     3
  9
$DIMTXSTY
  7
Standard
  9
$DIMAUNIT
 70
     0
  9
$DIMADEC
 70
     0
  9
$DIMALTRND
 40
0.0
  9
$DIMAZIN
 70
     0
  9
$DIMDSEP
 70
    44
  9
$DIMATFIT
 70
     3
  9
$DIMFRAC
 70
     0
  9
$DIMLDRBLK
  1

  9
$DIMLUNIT
 70
     2
  9
$DIMLWD
 70
    -2
  9
$DIMLWE
 70
    -2
  9
$DIMTMOVE
 70
     0
  9
$LUNITS
 70
     2
  9
$LUPREC
 70
     4
  9
$SKETCHINC
 40
1.0
  9
$FILLETRAD
 40
10.0
  9
$AUNITS
 70
     0
  9
$AUPREC
 70
     0
  9
$MENU
  1
.
  9
$ELEVATION
 40
0.0
  9
$PELEVATION
 40
0.0
  9
$THICKNESS
 40
0.0
  9
$LIMCHECK
 70
     0
  9
$CHAMFERA
 40
10.0
  9
$CHAMFERB
 40
10.0
  9
$CHAMFERC
 40
20.0
  9
$CHAMFERD
 40
0.0
  9
$SKPOLY
 70
     0
  9
$TDCREATE
 40
2456498.823110544
  9
$TDUCREATE
 40
2456498.448110544
  9
$TDUPDATE
 40
2456498.823110556
  9
$TDUUPDATE
 40
2456498.448110556
  9
$TDINDWG
 40
0.0000000116
  9
$TDUSRTIMER
 40
0.0000000116
  9
$USRTIMER
 70
     1
  9
$ANGBASE
 50
0.0
  9
$ANGDIR
 70
     0
  9
$PDMODE
 70
     0
  9
$PDSIZE
 40
0.0
  9
$PLINEWID
 40
0.0
  9
$SPLFRAME
 70
     0
  9
$SPLINETYPE
 70
     6
  9
$SPLINESEGS
 70
     8
  9
$HANDSEED
  5
1EA
  9
$SURFTAB1
 70
     6
  9
$SURFTAB2
 70
     6
  9
$SURFTYPE
 70
     6
  9
$SURFU
 70
     6
  9
$SURFV
 70
     6
  9
$UCSBASE
  2

  9
$UCSNAME
  2

  9
$UCSORG
 10
0.0
 20
0.0
 30
0.0
  9
$UCSXDIR
 10
1.0
 20
0.0
 30
0.0
  9
$UCSYDIR
 10
0.0
 20
1.0
 30
0.0
  9
$UCSORTHOREF
  2

  9
$UCSORTHOVIEW
 70
     0
  9
$UCSORGTOP
 10
0.0
 20
0.0
 30
0.0
  9
$UCSORGBOTTOM
 10
0.0
 20
0.0
 30
0.0
  9
$UCSORGLEFT
 10
0.0
 20
0.0
 30
0.0
  9
$UCSORGRIGHT
 10
0.0
 20
0.0
 30
0.0
  9
$UCSORGFRONT
 10
0.0
 20
0.0
 30
0.0
  9
$UCSORGBACK
 10
0.0
 20
0.0
 30
0.0
  9
$PUCSBASE
  2

  9
$PUCSNAME
  2

  9
$PUCSORG
 10
0.0
 20
0.0
 30
0.0
  9
$PUCSXDIR
 10
1.0
 20
0.0
 30
0.0
  9
$PUCSYDIR
 10
0.0
 20
1.0
 30
0.0
  9
$PUCSORTHOREF
  2

  9
$PUCSORTHOVIEW
 70
     0
  9
$PUCSORGTOP
 10
0.0
 20
0.0
 30
0.0
  9
$PUCSORGBOTTOM
 10
0.0
 20
0.0
 30
0.0
  9
$PUCSORGLEFT
 10
0.0
 20
0.0
 30
0.0
  9
$PUCSORGRIGHT
 10
0.0
 20
0.0
 30
0.0
  9
$PUCSORGFRONT
 10
0.0
 20
0.0
 30
0.0
  9
$PUCSORGBACK
 10
0.0
 20
0.0
 30
0.0
  9
$USERI1
 70
     0
  9
$USERI2
 70
     0
  9
$USERI3
 70
     0
  9
$USERI4
 70
     0
  9
$USERI5
 70
     0
  9
$USERR1
 40
0.0
  9
$USERR2
 40
0.0
  9
$USERR3
 40
0.0
  9
$USERR4
 40
0.0
  9
$USERR5
 40
0.0
  9
$WORLDVIEW
 70
     1
  9
$SHADEDGE
 70
     3
  9
$SHADEDIF
 70
    70
  9
$TILEMODE
 70
     1
  9
$MAXACTVP
 70
    64
  9
$PINSBASE
 10
0.0
 20
0.0
 30
0.0
  9
$PLIMCHECK
 70
     0
  9
$PEXTMIN
 10
1.000000000000000E+20
 20
1.000000000000000E+20
 30
1.000000000000000E+20
  9
$PEXTMAX
 10
-1.000000000000000E+20
 20
-1.000000000000000E+20
 30
-1.000000000000000E+20
  9
$PLIMMIN
 10
0.0
 20
0.0
  9
$PLIMMAX
 10
420.0
 20
297.0
  9
$UNITMODE
 70
     0
  9
$VISRETAIN
 70
     1
  9
$PLINEGEN
 70
     0
  9
$PSLTSCALE
 70
     1
  9
$TREEDEPTH
 70
  3020
  9
$CMLSTYLE
  2
Standard
  9
$CMLJUST
 70
     0
  9
$CMLSCALE
 40
20.0
  9
$PROXYGRAPHICS
 70
     1
  9
$MEASUREMENT
 70
     1
  9
$CELWEIGHT
370
    -1
  9
$ENDCAPS
280
     0
  9
$JOINSTYLE
280
     0
  9
$LWDISPLAY
290
     0
  9
$INSUNITS
 70
     4
  9
$HYPERLINKBASE
  1

  9
$STYLESHEET
  1

  9
$XEDIT
290
     1
  9
$CEPSNTYPE
380
     0
  9
$PSTYLEMODE
290
     1
  9
$FINGERPRINTGUID
  2
{31B384F3-5C90-4112-9E01-29FB28D74A31}
  9
$VERSIONGUID
  2
{FAEB1C32-E019-11D5-929B-00C0DF256EC4}
  9
$EXTNAMES
290
     1
  9
$PSVPSCALE
 40
0.0
  9
$OLESTARTUP
290
     0
  9
$SORTENTS
280
   127
  9
$INDEXCTL
280
     0
  9
$HIDETEXT
280
     1
  9
$XCLIPFRAME
290
     0
  9
$HALOGAP
280
     0
  9
$OBSCOLOR
 70
   257
  9
$OBSLTYPE
280
     0
  9
$INTERSECTIONDISPLAY
280
     0
  9
$INTERSECTIONCOLOR
 70
   257
  9
$DIMASSOC
280
     2
  9
$PROJECTNAME
  1

  0
ENDSEC
  0
SECTION
  2
CLASSES
  0
CLASS
  1
ACDBDICTIONARYWDFLT
  2
AcDbDictionaryWithDefault
  3
ObjectDBX Classes
 90
        0
 91
        4
280
     0
281
     0
  0
CLASS
  1
VISUALSTYLE
  2
AcDbVisualStyle
  3
ObjectDBX Classes
 90
     4095
 91
        4
280
     0
281
     0
  0
ENDSEC
  0
SECTION
  2
TABLES
  0
TABLE
  2
VPORT
  5
8
330
0
100
AcDbSymbolTable
 70
     1
  0
VPORT
  5
29
330
8
100
AcDbSymbolTableRecord
100
AcDbViewportTableRecord
  2
*Active
 70
     0
 10
0.0
 20
0.0
 11
1.0
 21
1.0
 12
0.0
 22
0.0
 13
0.0
 23
0.0
 14
10.0
 24
10.0
 15
10.0
 25
10.0
 16
0.0
 26
0.0
 36
1.0
 17
0.0
 27
0.0
 37
0.0
 40
3267.0
 41
1.414141414141414
 42
50.0
 43
0.0
 44
0.0
 50
0.0
 51
0.0
 71
     0
 72
 10000
 73
     1
 74
     3
 75
     0
 76
     0
 77
     0
 78
     0
281
     0
 65
     1
110
0.0
120
0.0
130
0.0
111
1.0
121
0.0
131
0.0
112
0.0
122
1.0
132
0.0
 79
     0
146
0.0
  0
ENDTAB
  0
TABLE
  2
LTYPE
  5
5
330
0
100
AcDbSymbolTable
 70
     2
  0
LTYPE
  5
14
330
5
100
AcDbSymbolTableRecord
100
AcDbLinetypeTableRecord
  2
ByBlock
 70
     0
  3

 72
    65
 73
     0
 40
0.0
  0
LTYPE
  5
15
330
5
100
AcDbSymbolTableRecord
100
AcDbLinetypeTableRecord
  2
ByLayer
 70
     0
  3

 72
    65
 73
     0
 40
0.0
  0
LTYPE
  5
16
330
5
100
AcDbSymbolTableRecord
100
AcDbLinetypeTableRecord
  2
Continuous
 70
     0
  3
Solid line
 72
    65
 73
     0
 40
0.0
  0
LTYPE
  5
3C
330
5
100
AcDbSymbolTableRecord
100
AcDbLinetypeTableRecord
  2
JWW_CENTER1
 70
     0
  3
-----  --  ----------  --  -----
 72
    65
 73
     4
 40
6.773333333333333
 49
4.233333333333333
 74
     0
 49
-0.8466666666666667
 74
     0
 49
0.8466666666666667
 74
     0
 49
-0.8466666666666667
 74
     0
  0
ENDTAB
  0
TABLE
  2
LAYER
  5
2
330
0
100
AcDbSymbolTable
 70
     5
  0
LAYER
  5
10
330
2
100
AcDbSymbolTableRecord
100
AcDbLayerTableRecord
  2
0
 70
     0
 62
     7
  6
Continuous
370
    -3
390
F
  0
LAYER
  5
3D
330
2
100
AcDbSymbolTableRecord
100
AcDbLayerTableRecord
  2
0-0
 70
     0
 62
     7
  6
Continuous
370
    -3
390
F
  0
LAYER
  5
3E
330
2
100
AcDbSymbolTableRecord
100
AcDbLayerTableRecord
  2
0-4
 70
     0
 62
     7
  6
Continuous
370
    -3
390
F
  0
LAYER
  5
3F
330
2
100
AcDbSymbolTableRecord
100
AcDbLayerTableRecord
  2
0-5
 70
     0
 62
     7
  6
Continuous
370
    -3
390
F
  0
LAYER
  5
40
330
2
100
AcDbSymbolTableRecord
100
AcDbLayerTableRecord
  2
F-4
 70
     0
 62
     7
  6
Continuous
370
    -3
390
F
  0
ENDTAB
  0
TABLE
  2
STYLE
  5
3
330
0
100
AcDbSymbolTable
 70
     2
  0
STYLE
  5
11
330
3
100
AcDbSymbolTableRecord
100
AcDbTextStyleTableRecord
  2
Standard
 70
     0
 40
0.0
 41
1.0
 50
0.0
 71
     0
 42
2.5
  3
txt
  4

1001
ACAD
1000

1071
        0
  0
STYLE
  5
3B
330
3
100
AcDbSymbolTableRecord
100
AcDbTextStyleTableRecord
  2
ＭＳ ゴシック
 70
     0
 40
1.0
 41
1.0
 50
0.0
 71
     0
 42
10.0
  3

  4

1001
ACAD
1000
MS Gothic
1071
    32817
  0
ENDTAB
  0
TABLE
  2
VIEW
  5
6
330
0
100
AcDbSymbolTable
 70
     0
  0
ENDTAB
  0
TABLE
  2
UCS
  5
7
330
0
100
AcDbSymbolTable
 70
     0
  0
ENDTAB
  0
TABLE
  2
APPID
  5
9
330
0
100
AcDbSymbolTable
 70
     1
  0
APPID
  5
12
330
9
100
AcDbSymbolTableRecord
100
AcDbRegAppTableRecord
  2
ACAD
 70
     0
  0
ENDTAB
  0
TABLE
  2
DIMSTYLE
  5
A
330
0
100
AcDbSymbolTable
 70
     1
100
AcDbDimStyleTable
  0
DIMSTYLE
105
27
330
A
100
AcDbSymbolTableRecord
100
AcDbDimStyleTableRecord
  2
ISO-25
 70
     0
 41
2.5
 42
0.625
 43
3.75
 44
1.25
 73
     0
 74
     0
 77
     1
 78
     8
140
2.5
141
2.5
143
0.03937007874016
147
0.625
171
     3
172
     1
271
     2
272
     2
274
     3
278
    44
283
     0
284
     8
340
11
  0
ENDTAB
  0
TABLE
  2
BLOCK_RECORD
  5
1
330
0
100
AcDbSymbolTable
 70
     1
  0
BLOCK_RECORD
  5
1F
330
1
100
AcDbSymbolTableRecord
100
AcDbBlockTableRecord
  2
*Model_Space
340
22
  0
BLOCK_RECORD
  5
1B
330
1
100
AcDbSymbolTableRecord
100
AcDbBlockTableRecord
  2
*Paper_Space
340
1E
  0
BLOCK_RECORD
  5
23
330
1
100
AcDbSymbolTableRecord
100
AcDbBlockTableRecord
  2
*Paper_Space0
340
26
  0
ENDTAB
  0
ENDSEC
  0
SECTION
  2
BLOCKS
  0
BLOCK
  5
20
330
1F
100
AcDbEntity
  8
0
100
AcDbBlockBegin
  2
*Model_Space
 70
     0
 10
0.0
 20
0.0
 30
0.0
  3
*Model_Space
  1

  0
ENDBLK
  5
21
330
1F
100
AcDbEntity
  8
0
100
AcDbBlockEnd
  0
BLOCK
  5
1C
330
1B
100
AcDbEntity
 67
     1
  8
0
100
AcDbBlockBegin
  2
*Paper_Space
 70
     0
 10
0.0
 20
0.0
 30
0.0
  3
*Paper_Space
  1

  0
ENDBLK
  5
1D
330
1B
100
AcDbEntity
 67
     1
  8
0
100
AcDbBlockEnd
  0
BLOCK
  5
24
330
23
100
AcDbEntity
  8
0
100
AcDbBlockBegin
  2
*Paper_Space0
 70
     0
 10
0.0
 20
0.0
 30
0.0
  3
*Paper_Space0
  1

  0
ENDBLK
  5
25
330
23
100
AcDbEntity
  8
0
100
AcDbBlockEnd
  0
ENDSEC
  0
SECTION
  2
ENTITIES
  0
ARC
  5
41
330
1F
100
AcDbEntity
  8
0-0
  6
Continuous
 62
     3
370
    13
100
AcDbCircle
 10
-460.47817123318
 20
162.2979695114021
 30
0.0
 40
24.00000030929978
100
AcDbArc
 50
82.81866455078126
 51
270.0
  0
LINE
  5
42
330
1F
100
AcDbEntity
  8
0-0
  6
Continuous
 62
     3
370
    13
100
AcDbLine
 10
-540.4782372171327
 20
768.2980387945526
 30
0.0
 11
-496.4782900042948
 21
768.2980387945526
 31
0.0
  0
LINE
  5
43
330
1F
100
AcDbEntity
  8
0-0
  6
Continuous
 62
     3
370
    13
100
AcDbLine
 10
-538.4781316428084
 20
766.6980434134291
 30
0.0
 11
-498.4782471147256
 21
766.6980434134291
 31
0.0
  0
LINE
  5
44
330
1F
100
AcDbEntity
  8
0-0
  6
Continuous
 62
     3
370
    13
100
AcDbLine
 10
-540.4782372171327
 20
768.2980387945526
 30
0.0
 11
-538.4781316428084
 21
766.6980434134291
 31
0.0
  0
LINE
  5
45
330
1F
100
AcDbEntity
  8
0-0
  6
Continuous
 62
     3
370
    13
100
AcDbLine
 10
-496.4782900042948
 20
768.2980387945526
 30
0.0
 11
-498.4782471147256
 21
766.6980434134291
 31
0.0
  0
LINE
  5
46
330
1F
100
AcDbEntity
  8
0-0
  6
Continuous
 62
     3
370
    13
100
AcDbLine
 10
-538.4781316428084
 20
766.6980434134291
 30
0.0
 11
-538.4781316428084
 21
508.2980470425467
 31
0.0
  0
LINE
  5
47
330
1F
100
AcDbEntity
  8
0-0
  6
Continuous
 62
     3
370
    13
100
AcDbLine
 10
-538.4781316428084
 20
508.2980470425467
 30
0.0
 11
-530.0623073712712
 21
477.1665789655829
 31
0.0
  0
LINE
  5
48
330
1F
100
AcDbEntity
  8
0-0
  6
Continuous
 62
     3
370
    13
100
AcDbLine
 10
-498.4782471147256
 20
766.6980434134291
 30
0.0
 11
-498.4782471147256
 21
508.2980470425467
 31
0.0
  0
LINE
  5
49
330
1F
100
AcDbEntity
  8
0-0
  6
Continuous
 62
     3
370
    13
100
AcDbLine
 10
-498.4782471147256
 20
508.2980470425467
 30
0.0
 11
-506.8939229223693
 21
477.1665789655829
 31
0.0
  0
LINE
  5
4A
330
1F
100
AcDbEntity
  8
0-0
  6
Continuous
 62
     3
370
    13
100
AcDbLine
 10
-537.0803440847425
 20
508.2980470425467
 30
0.0
 11
-500.051667458898
 21
508.2980470425467
 31
0.0
  0
LINE
  5
4B
330
1F
100
AcDbEntity
  8
0-0
  6
Continuous
 62
     3
370
    13
100
AcDbLine
 10
-540.4782372171327
 20
168.2979893065879
 30
0.0
 11
-540.4782372171327
 21
768.2980387945526
 31
0.0
  0
LINE
  5
4C
330
1F
100
AcDbEntity
  8
0-0
  6
Continuous
 62
     3
370
    13
100
AcDbLine
 10
-496.4782900042948
 20
196.2979827081927
 30
0.0
 11
-496.4782900042948
 21
768.2980387945526
 31
0.0
  0
LINE
  5
4D
330
1F
100
AcDbEntity
  8
0-0
  6
Continuous
 62
     3
370
    13
100
AcDbLine
 10
-256.728179481174
 20
159.7979860073904
 30
0.0
 11
-240.228125044413
 21
159.7979860073904
 31
0.0
  0
LINE
  5
4E
330
1F
100
AcDbEntity
  8
0-0
  6
Continuous
 62
     3
370
    13
100
AcDbLine
 10
-256.728179481174
 20
152.2980354953549
 30
0.0
 11
-240.228125044413
 21
152.2980354953549
 31
0.0
  0
LINE
  5
4F
330
1F
100
AcDbEntity
  8
0-0
  6
Continuous
 62
     3
370
    13
100
AcDbLine
 10
-241.7282042251563
 20
147.2980684873312
 30
0.0
 11
-225.2281497883953
 21
147.2980684873312
 31
0.0
  0
LINE
  5
50
330
1F
100
AcDbEntity
  8
0-0
  6
Continuous
 62
     3
370
    13
100
AcDbLine
 10
-241.7282042251563
 20
139.7981179752957
 30
0.0
 11
-225.2281497883953
 21
139.7981179752957
 31
0.0
  0
LINE
  5
51
330
1F
100
AcDbEntity
  8
0-0
  6
Continuous
 62
     3
370
    13
100
AcDbLine
 10
-271.7282289691386
 20
147.2980684873312
 30
0.0
 11
-255.2281745323775
 21
147.2980684873312
 31
0.0
  0
LINE
  5
52
330
1F
100
AcDbEntity
  8
0-0
  6
Continuous
 62
     3
370
    13
100
AcDbLine
 10
-271.7282289691386
 20
139.7981179752957
 30
0.0
 11
-255.2281745323775
 21
139.7981179752957
 31
0.0
  0
LINE
  5
53
330
1F
100
AcDbEntity
  8
0-0
  6
Continuous
 62
     3
370
    13
100
AcDbLine
 10
-256.728179481174
 20
183.7979167242399
 30
0.0
 11
-240.228125044413
 21
183.7979167242399
 31
0.0
  0
LINE
  5
54
330
1F
100
AcDbEntity
  8
0-0
  6
Continuous
 62
     3
370
    13
100
AcDbLine
 10
-256.728179481174
 20
176.2979662122044
 30
0.0
 11
-240.228125044413
 21
176.2979662122044
 31
0.0
  0
LINE
  5
55
330
1F
100
AcDbEntity
  8
0-0
  6
Continuous
 62
     3
370
    13
100
AcDbLine
 10
-241.7282042251563
 20
171.2979992041809
 30
0.0
 11
-225.2281497883953
 21
171.2979992041809
 31
0.0
  0
LINE
  5
56
330
1F
100
AcDbEntity
  8
0-0
  6
Continuous
 62
     3
370
    13
100
AcDbLine
 10
-241.7282042251563
 20
163.7980486921454
 30
0.0
 11
-225.2281497883953
 21
163.7980486921454
 31
0.0
  0
LINE
  5
57
330
1F
100
AcDbEntity
  8
0-0
  6
Continuous
 62
     3
370
    13
100
AcDbLine
 10
-271.7282289691386
 20
171.2979992041809
 30
0.0
 11
-255.2281745323775
 21
171.2979992041809
 31
0.0
  0
LINE
  5
58
330
1F
100
AcDbEntity
  8
0-0
  6
Continuous
 62
     3
370
    13
100
AcDbLine
 10
-271.7282289691386
 20
163.7980486921454
 30
0.0
 11
-255.2281745323775
 21
163.7980486921454
 31
0.0
  0
LINE
  5
59
330
1F
100
AcDbEntity
  8
0-0
  6
Continuous
 62
     3
370
    13
100
AcDbLine
 10
-286.7282042251563
 20
159.7979860073904
 30
0.0
 11
-270.2281497883953
 21
159.7979860073904
 31
0.0
  0
LINE
  5
5A
330
1F
100
AcDbEntity
  8
0-0
  6
Continuous
 62
     3
370
    13
100
AcDbLine
 10
-286.7282042251563
 20
152.2980354953549
 30
0.0
 11
-270.2281497883953
 21
152.2980354953549
 31
0.0
  0
LINE
  5
5B
330
1F
100
AcDbEntity
  8
0-0
  6
Continuous
 62
     3
370
    13
100
AcDbLine
 10
-301.7282537131208
 20
147.2980684873312
 30
0.0
 11
-285.2281992763599
 21
147.2980684873312
 31
0.0
  0
LINE
  5
5C
330
1F
100
AcDbEntity
  8
0-0
  6
Continuous
 62
     3
370
    13
100
AcDbLine
 10
-301.7282537131208
 20
139.7981179752957
 30
0.0
 11
-285.2281992763599
 21
139.7981179752957
 31
0.0
  0
LINE
  5
5D
330
1F
100
AcDbEntity
  8
0-0
  6
Continuous
 62
     3
370
    13
100
AcDbLine
 10
-286.7282042251563
 20
183.7979167242399
 30
0.0
 11
-270.2281497883953
 21
183.7979167242399
 31
0.0
  0
LINE
  5
5E
330
1F
100
AcDbEntity
  8
0-0
  6
Continuous
 62
     3
370
    13
100
AcDbLine
 10
-286.7282042251563
 20
176.2979662122044
 30
0.0
 11
-270.2281497883953
 21
176.2979662122044
 31
0.0
  0
LINE
  5
5F
330
1F
100
AcDbEntity
  8
0-0
  6
Continuous
 62
     3
370
    13
100
AcDbLine
 10
-301.7282537131208
 20
171.2979992041809
 30
0.0
 11
-285.2281992763599
 21
171.2979992041809
 31
0.0
  0
LINE
  5
60
330
1F
100
AcDbEntity
  8
0-0
  6
Continuous
 62
     3
370
    13
100
AcDbLine
 10
-301.7282537131208
 20
163.7980486921454
 30
0.0
 11
-285.2281992763599
 21
163.7980486921454
 31
0.0
  0
LINE
  5
61
330
1F
100
AcDbEntity
  8
0-0
  6
Continuous
 62
     3
370
    13
100
AcDbLine
 10
-316.7281547371917
 20
159.7979860073904
 30
0.0
 11
-300.2281003004308
 21
159.7979860073904
 31
0.0
  0
LINE
  5
62
330
1F
100
AcDbEntity
  8
0-0
  6
Continuous
 62
     3
370
    13
100
AcDbLine
 10
-316.7281547371917
 20
152.2980354953549
 30
0.0
 11
-300.2281003004308
 21
152.2980354953549
 31
0.0
  0
LINE
  5
63
330
1F
100
AcDbEntity
  8
0-0
  6
Continuous
 62
     3
370
    13
100
AcDbLine
 10
-331.7282042251563
 20
147.2980684873312
 30
0.0
 11
-315.2281497883953
 21
147.2980684873312
 31
0.0
  0
LINE
  5
64
330
1F
100
AcDbEntity
  8
0-0
  6
Continuous
 62
     3
370
    13
100
AcDbLine
 10
-331.7282042251563
 20
139.7981179752957
 30
0.0
 11
-315.2281497883953
 21
139.7981179752957
 31
0.0
  0
LINE
  5
65
330
1F
100
AcDbEntity
  8
0-0
  6
Continuous
 62
     3
370
    13
100
AcDbLine
 10
-316.7281547371917
 20
183.7979167242399
 30
0.0
 11
-300.2281003004308
 21
183.7979167242399
 31
0.0
  0
LINE
  5
66
330
1F
100
AcDbEntity
  8
0-0
  6
Continuous
 62
     3
370
    13
100
AcDbLine
 10
-316.7281547371917
 20
176.2979662122044
 30
0.0
 11
-300.2281003004308
 21
176.2979662122044
 31
0.0
  0
LINE
  5
67
330
1F
100
AcDbEntity
  8
0-0
  6
Continuous
 62
     3
370
    13
100
AcDbLine
 10
-331.7282042251563
 20
171.2979992041809
 30
0.0
 11
-315.2281497883953
 21
171.2979992041809
 31
0.0
  0
LINE
  5
68
330
1F
100
AcDbEntity
  8
0-0
  6
Continuous
 62
     3
370
    13
100
AcDbLine
 10
-331.7282042251563
 20
163.7980486921454
 30
0.0
 11
-315.2281497883953
 21
163.7980486921454
 31
0.0
  0
LINE
  5
69
330
1F
100
AcDbEntity
  8
0-0
  6
Continuous
 62
     3
370
    13
100
AcDbLine
 10
-346.728179481174
 20
159.7979860073904
 30
0.0
 11
-330.2281250444131
 21
159.7979860073904
 31
0.0
  0
LINE
  5
6A
330
1F
100
AcDbEntity
  8
0-0
  6
Continuous
 62
     3
370
    13
100
AcDbLine
 10
-346.728179481174
 20
152.2980354953549
 30
0.0
 11
-330.2281250444131
 21
152.2980354953549
 31
0.0
  0
LINE
  5
6B
330
1F
100
AcDbEntity
  8
0-0
  6
Continuous
 62
     3
370
    13
100
AcDbLine
 10
-361.7282289691386
 20
147.2980684873312
 30
0.0
 11
-345.2281745323775
 21
147.2980684873312
 31
0.0
  0
LINE
  5
6C
330
1F
100
AcDbEntity
  8
0-0
  6
Continuous
 62
     3
370
    13
100
AcDbLine
 10
-361.7282289691386
 20
139.7981179752957
 30
0.0
 11
-345.2281745323775
 21
139.7981179752957
 31
0.0
  0
LINE
  5
6D
330
1F
100
AcDbEntity
  8
0-0
  6
Continuous
 62
     3
370
    13
100
AcDbLine
 10
-346.728179481174
 20
183.7979167242399
 30
0.0
 11
-330.2281250444131
 21
183.7979167242399
 31
0.0
  0
LINE
  5
6E
330
1F
100
AcDbEntity
  8
0-0
  6
Continuous
 62
     3
370
    13
100
AcDbLine
 10
-346.728179481174
 20
176.2979662122044
 30
0.0
 11
-330.2281250444131
 21
176.2979662122044
 31
0.0
  0
LINE
  5
6F
330
1F
100
AcDbEntity
  8
0-0
  6
Continuous
 62
     3
370
    13
100
AcDbLine
 10
-361.7282289691386
 20
171.2979992041809
 30
0.0
 11
-345.2281745323775
 21
171.2979992041809
 31
0.0
  0
LINE
  5
70
330
1F
100
AcDbEntity
  8
0-0
  6
Continuous
 62
     3
370
    13
100
AcDbLine
 10
-361.7282289691386
 20
163.7980486921454
 30
0.0
 11
-345.2281745323775
 21
163.7980486921454
 31
0.0
  0
LINE
  5
71
330
1F
100
AcDbEntity
  8
0-0
  6
Continuous
 62
     3
370
    13
100
AcDbLine
 10
-376.7282042251563
 20
159.7979860073904
 30
0.0
 11
-360.2281497883953
 21
159.7979860073904
 31
0.0
  0
LINE
  5
72
330
1F
100
AcDbEntity
  8
0-0
  6
Continuous
 62
     3
370
    13
100
AcDbLine
 10
-376.7282042251563
 20
152.2980354953549
 30
0.0
 11
-360.2281497883953
 21
152.2980354953549
 31
0.0
  0
LINE
  5
73
330
1F
100
AcDbEntity
  8
0-0
  6
Continuous
 62
     3
370
    13
100
AcDbLine
 10
-391.7282537131208
 20
147.2980684873312
 30
0.0
 11
-375.2281992763599
 21
147.2980684873312
 31
0.0
  0
LINE
  5
74
330
1F
100
AcDbEntity
  8
0-0
  6
Continuous
 62
     3
370
    13
100
AcDbLine
 10
-391.7282537131208
 20
139.7981179752957
 30
0.0
 11
-375.2281992763599
 21
139.7981179752957
 31
0.0
  0
LINE
  5
75
330
1F
100
AcDbEntity
  8
0-0
  6
Continuous
 62
     3
370
    13
100
AcDbLine
 10
-376.7282042251563
 20
183.7979167242399
 30
0.0
 11
-360.2281497883953
 21
183.7979167242399
 31
0.0
  0
LINE
  5
76
330
1F
100
AcDbEntity
  8
0-0
  6
Continuous
 62
     3
370
    13
100
AcDbLine
 10
-376.7282042251563
 20
176.2979662122044
 30
0.0
 11
-360.2281497883953
 21
176.2979662122044
 31
0.0
  0
LINE
  5
77
330
1F
100
AcDbEntity
  8
0-0
  6
Continuous
 62
     3
370
    13
100
AcDbLine
 10
-391.7282537131208
 20
171.2979992041809
 30
0.0
 11
-375.2281992763599
 21
171.2979992041809
 31
0.0
  0
LINE
  5
78
330
1F
100
AcDbEntity
  8
0-0
  6
Continuous
 62
     3
370
    13
100
AcDbLine
 10
-391.7282537131208
 20
163.7980486921454
 30
0.0
 11
-375.2281992763599
 21
163.7980486921454
 31
0.0
  0
LINE
  5
79
330
1F
100
AcDbEntity
  8
0-0
  6
Continuous
 62
     3
370
    13
100
AcDbLine
 10
-406.7281547371917
 20
159.7979860073904
 30
0.0
 11
-390.2280260684841
 21
159.7979860073904
 31
0.0
  0
LINE
  5
7A
330
1F
100
AcDbEntity
  8
0-0
  6
Continuous
 62
     3
370
    13
100
AcDbLine
 10
-406.7281547371917
 20
152.2980354953549
 30
0.0
 11
-390.2280260684841
 21
152.2980354953549
 31
0.0
  0
LINE
  5
7B
330
1F
100
AcDbEntity
  8
0-0
  6
Continuous
 62
     3
370
    13
100
AcDbLine
 10
-421.7282042251562
 20
147.2980684873312
 30
0.0
 11
-405.2282240203421
 21
147.2980684873312
 31
0.0
  0
LINE
  5
7C
330
1F
100
AcDbEntity
  8
0-0
  6
Continuous
 62
     3
370
    13
100
AcDbLine
 10
-421.7282042251562
 20
139.7981179752957
 30
0.0
 11
-405.2282240203421
 21
139.7981179752957
 31
0.0
  0
LINE
  5
7D
330
1F
100
AcDbEntity
  8
0-0
  6
Continuous
 62
     3
370
    13
100
AcDbLine
 10
-406.7281547371917
 20
183.7979167242399
 30
0.0
 11
-390.2280260684841
 21
183.7979167242399
 31
0.0
  0
LINE
  5
7E
330
1F
100
AcDbEntity
  8
0-0
  6
Continuous
 62
     3
370
    13
100
AcDbLine
 10
-406.7281547371917
 20
176.2979662122044
 30
0.0
 11
-390.2280260684841
 21
176.2979662122044
 31
0.0
  0
LINE
  5
7F
330
1F
100
AcDbEntity
  8
0-0
  6
Continuous
 62
     3
370
    13
100
AcDbLine
 10
-421.7282042251562
 20
171.2979992041809
 30
0.0
 11
-405.2282240203421
 21
171.2979992041809
 31
0.0
  0
LINE
  5
80
330
1F
100
AcDbEntity
  8
0-0
  6
Continuous
 62
     3
370
    13
100
AcDbLine
 10
-421.7282042251562
 20
163.7980486921454
 30
0.0
 11
-405.2282240203421
 21
163.7980486921454
 31
0.0
  0
LINE
  5
81
330
1F
100
AcDbEntity
  8
0-0
  6
Continuous
 62
     3
370
    13
100
AcDbLine
 10
-436.7281052492272
 20
159.7979860073904
 30
0.0
 11
-420.2281250444131
 21
159.7979860073904
 31
0.0
  0
LINE
  5
82
330
1F
100
AcDbEntity
  8
0-0
  6
Continuous
 62
     3
370
    13
100
AcDbLine
 10
-436.7281052492272
 20
152.2980354953549
 30
0.0
 11
-420.2281250444131
 21
152.2980354953549
 31
0.0
  0
LINE
  5
83
330
1F
100
AcDbEntity
  8
0-0
  6
Continuous
 62
     3
370
    13
100
AcDbLine
 10
-451.7283032010853
 20
147.2980684873312
 30
0.0
 11
-435.2281745323776
 21
147.2980684873312
 31
0.0
  0
LINE
  5
84
330
1F
100
AcDbEntity
  8
0-0
  6
Continuous
 62
     3
370
    13
100
AcDbLine
 10
-451.7283032010853
 20
139.7981179752957
 30
0.0
 11
-435.2281745323776
 21
139.7981179752957
 31
0.0
  0
LINE
  5
85
330
1F
100
AcDbEntity
  8
0-0
  6
Continuous
 62
     3
370
    13
100
AcDbLine
 10
-436.7281052492272
 20
183.7979167242399
 30
0.0
 11
-420.2281250444131
 21
183.7979167242399
 31
0.0
  0
LINE
  5
86
330
1F
100
AcDbEntity
  8
0-0
  6
Continuous
 62
     3
370
    13
100
AcDbLine
 10
-436.7281052492272
 20
176.2979662122044
 30
0.0
 11
-420.2281250444131
 21
176.2979662122044
 31
0.0
  0
LINE
  5
87
330
1F
100
AcDbEntity
  8
0-0
  6
Continuous
 62
     3
370
    13
100
AcDbLine
 10
-451.7283032010853
 20
171.2979992041809
 30
0.0
 11
-435.2281745323776
 21
171.2979992041809
 31
0.0
  0
LINE
  5
88
330
1F
100
AcDbEntity
  8
0-0
  6
Continuous
 62
     3
370
    13
100
AcDbLine
 10
-451.7283032010853
 20
163.7980486921454
 30
0.0
 11
-435.2281745323776
 21
163.7980486921454
 31
0.0
  0
LINE
  5
89
330
1F
100
AcDbEntity
  8
0-0
  6
Continuous
 62
     3
370
    13
100
AcDbLine
 10
-466.7282042251564
 20
159.7979860073904
 30
0.0
 11
-450.2282240203422
 21
159.7979860073904
 31
0.0
  0
LINE
  5
8A
330
1F
100
AcDbEntity
  8
0-0
  6
Continuous
 62
     3
370
    13
100
AcDbLine
 10
-466.7282042251564
 20
152.2980354953549
 30
0.0
 11
-450.2282240203422
 21
152.2980354953549
 31
0.0
  0
LINE
  5
8B
330
1F
100
AcDbEntity
  8
0-0
  6
JWW_CENTER1
 62
     3
370
    13
100
AcDbLine
 10
-518.4782636107137
 20
182.2979860073904
 30
0.0
 11
-518.4782636107137
 21
777.4965647130491
 31
0.0
  0
LINE
  5
8C
330
1F
100
AcDbEntity
  8
0-0
  6
Continuous
 62
     3
370
    13
100
AcDbLine
 10
103.5219079475633
 20
768.2980387945526
 30
0.0
 11
59.5219607347255
 21
768.2980387945526
 31
0.0
  0
LINE
  5
8D
330
1F
100
AcDbEntity
  8
0-0
  6
Continuous
 62
     3
370
    13
100
AcDbLine
 10
101.5218023732391
 20
766.6980434134291
 30
0.0
 11
61.52191784515628
 21
766.6980434134291
 31
0.0
  0
LINE
  5
8E
330
1F
100
AcDbEntity
  8
0-0
  6
Continuous
 62
     3
370
    13
100
AcDbLine
 10
59.5219607347255
 20
768.2980387945526
 30
0.0
 11
61.52191784515628
 21
766.6980434134291
 31
0.0
  0
LINE
  5
8F
330
1F
100
AcDbEntity
  8
0-0
  6
Continuous
 62
     3
370
    13
100
AcDbLine
 10
101.5218023732391
 20
766.6980434134291
 30
0.0
 11
101.5218023732391
 21
508.2980470425467
 31
0.0
  0
LINE
  5
90
330
1F
100
AcDbEntity
  8
0-0
  6
Continuous
 62
     3
370
    13
100
AcDbLine
 10
101.5218023732391
 20
508.2980470425467
 30
0.0
 11
93.10597810170191
 21
477.1665789655829
 31
0.0
  0
LINE
  5
91
330
1F
100
AcDbEntity
  8
0-0
  6
Continuous
 62
     3
370
    13
100
AcDbLine
 10
61.52191784515628
 20
766.6980434134291
 30
0.0
 11
61.52191784515628
 21
508.2980470425467
 31
0.0
  0
LINE
  5
92
330
1F
100
AcDbEntity
  8
0-0
  6
Continuous
 62
     3
370
    13
100
AcDbLine
 10
61.52191784515628
 20
508.2980470425467
 30
0.0
 11
69.93759365279986
 21
477.1665789655829
 31
0.0
  0
LINE
  5
93
330
1F
100
AcDbEntity
  8
0-0
  6
Continuous
 62
     3
370
    13
100
AcDbLine
 10
100.1240148151731
 20
508.2980470425467
 30
0.0
 11
63.09533818932863
 21
508.2980470425467
 31
0.0
  0
LINE
  5
94
330
1F
100
AcDbEntity
  8
0-0
  6
Continuous
 62
     3
370
    13
100
AcDbLine
 10
103.5219079475633
 20
168.2979893065879
 30
0.0
 11
103.5219079475633
 21
768.2980387945526
 31
0.0
  0
LINE
  5
95
330
1F
100
AcDbEntity
  8
0-0
  6
Continuous
 62
     3
370
    13
100
AcDbLine
 10
59.5219607347255
 20
196.2979827081927
 30
0.0
 11
59.5219607347255
 21
768.2980387945526
 31
0.0
  0
LINE
  5
96
330
1F
100
AcDbEntity
  8
0-0
  6
Continuous
 62
     3
370
    13
100
AcDbLine
 10
-180.2281497883953
 20
159.7979860073904
 30
0.0
 11
-196.7282042251563
 21
159.7979860073904
 31
0.0
  0
LINE
  5
97
330
1F
100
AcDbEntity
  8
0-0
  6
Continuous
 62
     3
370
    13
100
AcDbLine
 10
-180.2281497883953
 20
152.2980354953549
 30
0.0
 11
-196.7282042251563
 21
152.2980354953549
 31
0.0
  0
LINE
  5
98
330
1F
100
AcDbEntity
  8
0-0
  6
Continuous
 62
     3
370
    13
100
AcDbLine
 10
-195.228125044413
 20
147.2980684873312
 30
0.0
 11
-211.728179481174
 21
147.2980684873312
 31
0.0
  0
LINE
  5
99
330
1F
100
AcDbEntity
  8
0-0
  6
Continuous
 62
     3
370
    13
100
AcDbLine
 10
-195.228125044413
 20
139.7981179752957
 30
0.0
 11
-211.728179481174
 21
139.7981179752957
 31
0.0
  0
LINE
  5
9A
330
1F
100
AcDbEntity
  8
0-0
  6
Continuous
 62
     3
370
    13
100
AcDbLine
 10
-165.2281003004308
 20
147.2980684873312
 30
0.0
 11
-181.7281547371917
 21
147.2980684873312
 31
0.0
  0
LINE
  5
9B
330
1F
100
AcDbEntity
  8
0-0
  6
Continuous
 62
     3
370
    13
100
AcDbLine
 10
-165.2281003004308
 20
139.7981179752957
 30
0.0
 11
-181.7281547371917
 21
139.7981179752957
 31
0.0
  0
LINE
  5
9C
330
1F
100
AcDbEntity
  8
0-0
  6
Continuous
 62
     3
370
    13
100
AcDbLine
 10
-180.2281497883953
 20
183.7979167242399
 30
0.0
 11
-196.7282042251563
 21
183.7979167242399
 31
0.0
  0
LINE
  5
9D
330
1F
100
AcDbEntity
  8
0-0
  6
Continuous
 62
     3
370
    13
100
AcDbLine
 10
-180.2281497883953
 20
176.2979662122044
 30
0.0
 11
-196.7282042251563
 21
176.2979662122044
 31
0.0
  0
LINE
  5
9E
330
1F
100
AcDbEntity
  8
0-0
  6
Continuous
 62
     3
370
    13
100
AcDbLine
 10
-195.228125044413
 20
171.2979992041809
 30
0.0
 11
-211.728179481174
 21
171.2979992041809
 31
0.0
  0
LINE
  5
9F
330
1F
100
AcDbEntity
  8
0-0
  6
Continuous
 62
     3
370
    13
100
AcDbLine
 10
-195.228125044413
 20
163.7980486921454
 30
0.0
 11
-211.728179481174
 21
163.7980486921454
 31
0.0
  0
LINE
  5
A0
330
1F
100
AcDbEntity
  8
0-0
  6
Continuous
 62
     3
370
    13
100
AcDbLine
 10
-165.2281003004308
 20
171.2979992041809
 30
0.0
 11
-181.7281547371917
 21
171.2979992041809
 31
0.0
  0
LINE
  5
A1
330
1F
100
AcDbEntity
  8
0-0
  6
Continuous
 62
     3
370
    13
100
AcDbLine
 10
-165.2281003004308
 20
163.7980486921454
 30
0.0
 11
-181.7281547371917
 21
163.7980486921454
 31
0.0
  0
LINE
  5
A2
330
1F
100
AcDbEntity
  8
0-0
  6
Continuous
 62
     3
370
    13
100
AcDbLine
 10
-150.228125044413
 20
159.7979860073904
 30
0.0
 11
-166.728179481174
 21
159.7979860073904
 31
0.0
  0
LINE
  5
A3
330
1F
100
AcDbEntity
  8
0-0
  6
Continuous
 62
     3
370
    13
100
AcDbLine
 10
-150.228125044413
 20
152.2980354953549
 30
0.0
 11
-166.728179481174
 21
152.2980354953549
 31
0.0
  0
LINE
  5
A4
330
1F
100
AcDbEntity
  8
0-0
  6
Continuous
 62
     3
370
    13
100
AcDbLine
 10
-135.2280755564484
 20
147.2980684873312
 30
0.0
 11
-151.7281299932095
 21
147.2980684873312
 31
0.0
  0
LINE
  5
A5
330
1F
100
AcDbEntity
  8
0-0
  6
Continuous
 62
     3
370
    13
100
AcDbLine
 10
-135.2280755564484
 20
139.7981179752957
 30
0.0
 11
-151.7281299932095
 21
139.7981179752957
 31
0.0
  0
LINE
  5
A6
330
1F
100
AcDbEntity
  8
0-0
  6
Continuous
 62
     3
370
    13
100
AcDbLine
 10
-150.228125044413
 20
183.7979167242399
 30
0.0
 11
-166.728179481174
 21
183.7979167242399
 31
0.0
  0
LINE
  5
A7
330
1F
100
AcDbEntity
  8
0-0
  6
Continuous
 62
     3
370
    13
100
AcDbLine
 10
-150.228125044413
 20
176.2979662122044
 30
0.0
 11
-166.728179481174
 21
176.2979662122044
 31
0.0
  0
LINE
  5
A8
330
1F
100
AcDbEntity
  8
0-0
  6
Continuous
 62
     3
370
    13
100
AcDbLine
 10
-135.2280755564484
 20
171.2979992041809
 30
0.0
 11
-151.7281299932095
 21
171.2979992041809
 31
0.0
  0
LINE
  5
A9
330
1F
100
AcDbEntity
  8
0-0
  6
Continuous
 62
     3
370
    13
100
AcDbLine
 10
-135.2280755564484
 20
163.7980486921454
 30
0.0
 11
-151.7281299932095
 21
163.7980486921454
 31
0.0
  0
LINE
  5
AA
330
1F
100
AcDbEntity
  8
0-0
  6
Continuous
 62
     3
370
    13
100
AcDbLine
 10
-120.2281745323775
 20
159.7979860073904
 30
0.0
 11
-136.7282289691386
 21
159.7979860073904
 31
0.0
  0
LINE
  5
AB
330
1F
100
AcDbEntity
  8
0-0
  6
Continuous
 62
     3
370
    13
100
AcDbLine
 10
-120.2281745323775
 20
152.2980354953549
 30
0.0
 11
-136.7282289691386
 21
152.2980354953549
 31
0.0
  0
LINE
  5
AC
330
1F
100
AcDbEntity
  8
0-0
  6
Continuous
 62
     3
370
    13
100
AcDbLine
 10
-105.2281250444129
 20
147.2980684873312
 30
0.0
 11
-121.7281794811741
 21
147.2980684873312
 31
0.0
  0
LINE
  5
AD
330
1F
100
AcDbEntity
  8
0-0
  6
Continuous
 62
     3
370
    13
100
AcDbLine
 10
-105.2281250444129
 20
139.7981179752957
 30
0.0
 11
-121.7281794811741
 21
139.7981179752957
 31
0.0
  0
LINE
  5
AE
330
1F
100
AcDbEntity
  8
0-0
  6
Continuous
 62
     3
370
    13
100
AcDbLine
 10
-120.2281745323775
 20
183.7979167242399
 30
0.0
 11
-136.7282289691386
 21
183.7979167242399
 31
0.0
  0
LINE
  5
AF
330
1F
100
AcDbEntity
  8
0-0
  6
Continuous
 62
     3
370
    13
100
AcDbLine
 10
-120.2281745323775
 20
176.2979662122044
 30
0.0
 11
-136.7282289691386
 21
176.2979662122044
 31
0.0
  0
LINE
  5
B0
330
1F
100
AcDbEntity
  8
0-0
  6
Continuous
 62
     3
370
    13
100
AcDbLine
 10
-105.2281250444129
 20
171.2979992041809
 30
0.0
 11
-121.7281794811741
 21
171.2979992041809
 31
0.0
  0
LINE
  5
B1
330
1F
100
AcDbEntity
  8
0-0
  6
Continuous
 62
     3
370
    13
100
AcDbLine
 10
-105.2281250444129
 20
163.7980486921454
 30
0.0
 11
-121.7281794811741
 21
163.7980486921454
 31
0.0
  0
LINE
  5
B2
330
1F
100
AcDbEntity
  8
0-0
  6
Continuous
 62
     3
370
    13
100
AcDbLine
 10
-90.22814978839531
 20
159.7979860073904
 30
0.0
 11
-106.7282042251562
 21
159.7979860073904
 31
0.0
  0
LINE
  5
B3
330
1F
100
AcDbEntity
  8
0-0
  6
Continuous
 62
     3
370
    13
100
AcDbLine
 10
-90.22814978839531
 20
152.2980354953549
 30
0.0
 11
-106.7282042251562
 21
152.2980354953549
 31
0.0
  0
LINE
  5
B4
330
1F
100
AcDbEntity
  8
0-0
  6
Continuous
 62
     3
370
    13
100
AcDbLine
 10
-75.22810030043077
 20
147.2980684873312
 30
0.0
 11
-91.7281547371917
 21
147.2980684873312
 31
0.0
  0
LINE
  5
B5
330
1F
100
AcDbEntity
  8
0-0
  6
Continuous
 62
     3
370
    13
100
AcDbLine
 10
-75.22810030043077
 20
139.7981179752957
 30
0.0
 11
-91.7281547371917
 21
139.7981179752957
 31
0.0
  0
LINE
  5
B6
330
1F
100
AcDbEntity
  8
0-0
  6
Continuous
 62
     3
370
    13
100
AcDbLine
 10
-90.22814978839531
 20
183.7979167242399
 30
0.0
 11
-106.7282042251562
 21
183.7979167242399
 31
0.0
  0
LINE
  5
B7
330
1F
100
AcDbEntity
  8
0-0
  6
Continuous
 62
     3
370
    13
100
AcDbLine
 10
-90.22814978839531
 20
176.2979662122044
 30
0.0
 11
-106.7282042251562
 21
176.2979662122044
 31
0.0
  0
LINE
  5
B8
330
1F
100
AcDbEntity
  8
0-0
  6
Continuous
 62
     3
370
    13
100
AcDbLine
 10
-75.22810030043077
 20
171.2979992041809
 30
0.0
 11
-91.7281547371917
 21
171.2979992041809
 31
0.0
  0
LINE
  5
B9
330
1F
100
AcDbEntity
  8
0-0
  6
Continuous
 62
     3
370
    13
100
AcDbLine
 10
-75.22810030043077
 20
163.7980486921454
 30
0.0
 11
-91.7281547371917
 21
163.7980486921454
 31
0.0
  0
LINE
  5
BA
330
1F
100
AcDbEntity
  8
0-0
  6
Continuous
 62
     3
370
    13
100
AcDbLine
 10
-60.22812504441294
 20
159.7979860073904
 30
0.0
 11
-76.72817948117405
 21
159.7979860073904
 31
0.0
  0
LINE
  5
BB
330
1F
100
AcDbEntity
  8
0-0
  6
Continuous
 62
     3
370
    13
100
AcDbLine
 10
-60.22812504441294
 20
152.2980354953549
 30
0.0
 11
-76.72817948117405
 21
152.2980354953549
 31
0.0
  0
LINE
  5
BC
330
1F
100
AcDbEntity
  8
0-0
  6
Continuous
 62
     3
370
    13
100
AcDbLine
 10
-45.22807555644842
 20
147.2980684873312
 30
0.0
 11
-61.72812999320952
 21
147.2980684873312
 31
0.0
  0
LINE
  5
BD
330
1F
100
AcDbEntity
  8
0-0
  6
Continuous
 62
     3
370
    13
100
AcDbLine
 10
-45.22807555644842
 20
139.7981179752957
 30
0.0
 11
-61.72812999320952
 21
139.7981179752957
 31
0.0
  0
LINE
  5
BE
330
1F
100
AcDbEntity
  8
0-0
  6
Continuous
 62
     3
370
    13
100
AcDbLine
 10
-60.22812504441294
 20
183.7979167242399
 30
0.0
 11
-76.72817948117405
 21
183.7979167242399
 31
0.0
  0
LINE
  5
BF
330
1F
100
AcDbEntity
  8
0-0
  6
Continuous
 62
     3
370
    13
100
AcDbLine
 10
-60.22812504441294
 20
176.2979662122044
 30
0.0
 11
-76.72817948117405
 21
176.2979662122044
 31
0.0
  0
LINE
  5
C0
330
1F
100
AcDbEntity
  8
0-0
  6
Continuous
 62
     3
370
    13
100
AcDbLine
 10
-45.22807555644842
 20
171.2979992041809
 30
0.0
 11
-61.72812999320952
 21
171.2979992041809
 31
0.0
  0
LINE
  5
C1
330
1F
100
AcDbEntity
  8
0-0
  6
Continuous
 62
     3
370
    13
100
AcDbLine
 10
-45.22807555644842
 20
163.7980486921454
 30
0.0
 11
-61.72812999320952
 21
163.7980486921454
 31
0.0
  0
LINE
  5
C2
330
1F
100
AcDbEntity
  8
0-0
  6
Continuous
 62
     3
370
    13
100
AcDbLine
 10
-30.22817453237748
 20
159.7979860073904
 30
0.0
 11
-46.7283032010853
 21
159.7979860073904
 31
0.0
  0
LINE
  5
C3
330
1F
100
AcDbEntity
  8
0-0
  6
Continuous
 62
     3
370
    13
100
AcDbLine
 10
-30.22817453237748
 20
152.2980354953549
 30
0.0
 11
-46.7283032010853
 21
152.2980354953549
 31
0.0
  0
LINE
  5
C4
330
1F
100
AcDbEntity
  8
0-0
  6
Continuous
 62
     3
370
    13
100
AcDbLine
 10
-15.22812504441294
 20
147.2980684873312
 30
0.0
 11
-31.72810524922717
 21
147.2980684873312
 31
0.0
  0
LINE
  5
C5
330
1F
100
AcDbEntity
  8
0-0
  6
Continuous
 62
     3
370
    13
100
AcDbLine
 10
-15.22812504441294
 20
139.7981179752957
 30
0.0
 11
-31.72810524922717
 21
139.7981179752957
 31
0.0
  0
LINE
  5
C6
330
1F
100
AcDbEntity
  8
0-0
  6
Continuous
 62
     3
370
    13
100
AcDbLine
 10
-30.22817453237748
 20
183.7979167242399
 30
0.0
 11
-46.7283032010853
 21
183.7979167242399
 31
0.0
  0
LINE
  5
C7
330
1F
100
AcDbEntity
  8
0-0
  6
Continuous
 62
     3
370
    13
100
AcDbLine
 10
-30.22817453237748
 20
176.2979662122044
 30
0.0
 11
-46.7283032010853
 21
176.2979662122044
 31
0.0
  0
LINE
  5
C8
330
1F
100
AcDbEntity
  8
0-0
  6
Continuous
 62
     3
370
    13
100
AcDbLine
 10
-15.22812504441294
 20
171.2979992041809
 30
0.0
 11
-31.72810524922717
 21
171.2979992041809
 31
0.0
  0
LINE
  5
C9
330
1F
100
AcDbEntity
  8
0-0
  6
Continuous
 62
     3
370
    13
100
AcDbLine
 10
-15.22812504441294
 20
163.7980486921454
 30
0.0
 11
-31.72810524922717
 21
163.7980486921454
 31
0.0
  0
LINE
  5
CA
330
1F
100
AcDbEntity
  8
0-0
  6
Continuous
 62
     3
370
    13
100
AcDbLine
 10
-0.2282240203420072
 20
159.7979860073904
 30
0.0
 11
-16.72820422515623
 21
159.7979860073904
 31
0.0
  0
LINE
  5
CB
330
1F
100
AcDbEntity
  8
0-0
  6
Continuous
 62
     3
370
    13
100
AcDbLine
 10
-0.2282240203420072
 20
152.2980354953549
 30
0.0
 11
-16.72820422515623
 21
152.2980354953549
 31
0.0
  0
LINE
  5
CC
330
1F
100
AcDbEntity
  8
0-0
  6
Continuous
 62
     3
370
    13
100
AcDbLine
 10
14.77197393151612
 20
147.2980684873312
 30
0.0
 11
-1.728154737191696
 21
147.2980684873312
 31
0.0
  0
LINE
  5
CD
330
1F
100
AcDbEntity
  8
0-0
  6
Continuous
 62
     3
370
    13
100
AcDbLine
 10
14.77197393151612
 20
139.7981179752957
 30
0.0
 11
-1.728154737191696
 21
139.7981179752957
 31
0.0
  0
LINE
  5
CE
330
1F
100
AcDbEntity
  8
0-0
  6
Continuous
 62
     3
370
    13
100
AcDbLine
 10
-0.2282240203420072
 20
183.7979167242399
 30
0.0
 11
-16.72820422515623
 21
183.7979167242399
 31
0.0
  0
LINE
  5
CF
330
1F
100
AcDbEntity
  8
0-0
  6
Continuous
 62
     3
370
    13
100
AcDbLine
 10
-0.2282240203420072
 20
176.2979662122044
 30
0.0
 11
-16.72820422515623
 21
176.2979662122044
 31
0.0
  0
LINE
  5
D0
330
1F
100
AcDbEntity
  8
0-0
  6
Continuous
 62
     3
370
    13
100
AcDbLine
 10
14.77197393151612
 20
171.2979992041809
 30
0.0
 11
-1.728154737191696
 21
171.2979992041809
 31
0.0
  0
LINE
  5
D1
330
1F
100
AcDbEntity
  8
0-0
  6
Continuous
 62
     3
370
    13
100
AcDbLine
 10
14.77197393151612
 20
163.7980486921454
 30
0.0
 11
-1.728154737191696
 21
163.7980486921454
 31
0.0
  0
LINE
  5
D2
330
1F
100
AcDbEntity
  8
0-0
  6
Continuous
 62
     3
370
    13
100
AcDbLine
 10
29.77187495558706
 20
159.7979860073904
 30
0.0
 11
13.27189475077284
 21
159.7979860073904
 31
0.0
  0
LINE
  5
D3
330
1F
100
AcDbEntity
  8
0-0
  6
Continuous
 62
     3
370
    13
100
AcDbLine
 10
29.77187495558706
 20
152.2980354953549
 30
0.0
 11
13.27189475077284
 21
152.2980354953549
 31
0.0
  0
LINE
  5
D4
330
1F
100
AcDbEntity
  8
0-0
  6
JWW_CENTER1
 62
     3
370
    13
100
AcDbLine
 10
81.52193434114439
 20
182.2979860073904
 30
0.0
 11
81.52193434114439
 21
777.4965647130491
 31
0.0
  0
LINE
  5
D5
330
1F
100
AcDbEntity
  8
0-0
  6
Continuous
 62
     3
370
    13
100
AcDbLine
 10
53.5219409395397
 20
190.297962913007
 30
0.0
 11
-490.4782702091091
 21
190.297962913007
 31
0.0
  0
LINE
  5
D6
330
1F
100
AcDbEntity
  8
0-0
  6
Continuous
 62
     3
370
    13
100
AcDbLine
 10
-210.2281745323775
 20
183.7979167242399
 30
0.0
 11
-226.7281547371917
 21
183.7979167242399
 31
0.0
  0
LINE
  5
D7
330
1F
100
AcDbEntity
  8
0-0
  6
Continuous
 62
     3
370
    13
100
AcDbLine
 10
-210.2281745323775
 20
176.2979662122044
 30
0.0
 11
-226.7281547371917
 21
176.2979662122044
 31
0.0
  0
LINE
  5
D8
330
1F
100
AcDbEntity
  8
0-0
  6
JWW_CENTER1
 62
     3
370
    13
100
AcDbLine
 10
67.52178917644846
 20
168.2979893065879
 30
0.0
 11
-504.4781184460178
 21
168.2979893065879
 31
0.0
  0
LINE
  5
D9
330
1F
100
AcDbEntity
  8
0-0
  6
Continuous
 62
     3
370
    13
100
AcDbLine
 10
-210.2281745323775
 20
159.7979860073904
 30
0.0
 11
-226.7281547371917
 21
159.7979860073904
 31
0.0
  0
LINE
  5
DA
330
1F
100
AcDbEntity
  8
0-0
  6
Continuous
 62
     3
370
    13
100
AcDbLine
 10
-210.2281745323775
 20
152.2980354953549
 30
0.0
 11
-226.7281547371917
 21
152.2980354953549
 31
0.0
  0
LINE
  5
DB
330
1F
100
AcDbEntity
  8
0-0
  6
Continuous
 62
     3
370
    13
100
AcDbLine
 10
457.7380515814318
 20
768.2980387945526
 30
0.0
 11
447.7381175653843
 21
766.2979332202282
 31
0.0
  0
LINE
  5
DC
330
1F
100
AcDbEntity
  8
0-0
  6
Continuous
 62
     3
370
    13
100
AcDbLine
 10
457.7380515814318
 20
768.2980387945526
 30
0.0
 11
467.7379855974789
 21
766.2979332202282
 31
0.0
  0
LINE
  5
DD
330
1F
100
AcDbEntity
  8
0-0
  6
Continuous
 62
     3
370
    13
100
AcDbLine
 10
447.7381175653843
 20
766.2979332202282
 30
0.0
 11
447.7381175653843
 21
508.2980470425467
 31
0.0
  0
LINE
  5
DE
330
1F
100
AcDbEntity
  8
0-0
  6
Continuous
 62
     3
370
    13
100
AcDbLine
 10
467.7379855974789
 20
766.2979332202282
 30
0.0
 11
467.7379855974789
 21
508.2980470425467
 31
0.0
  0
LINE
  5
DF
330
1F
100
AcDbEntity
  8
0-0
  6
Continuous
 62
     3
370
    13
100
AcDbLine
 10
447.7381175653843
 20
508.2980470425467
 30
0.0
 11
435.7380779750127
 21
468.2980140505703
 31
0.0
  0
LINE
  5
E0
330
1F
100
AcDbEntity
  8
0-0
  6
Continuous
 62
     3
370
    13
100
AcDbLine
 10
467.7379855974789
 20
508.2980470425467
 30
0.0
 11
479.7380251878505
 21
468.2980140505703
 31
0.0
  0
LINE
  5
E1
330
1F
100
AcDbEntity
  8
0-0
  6
Continuous
 62
     3
370
    13
100
AcDbLine
 10
435.7380779750127
 20
468.2980140505703
 30
0.0
 11
435.7380779750127
 21
168.2979893065879
 31
0.0
  0
LINE
  5
E2
330
1F
100
AcDbEntity
  8
0-0
  6
Continuous
 62
     3
370
    13
100
AcDbLine
 10
441.7380977701987
 20
177.0480058025762
 30
0.0
 11
445.7380119910599
 21
177.0480058025762
 31
0.0
  0
LINE
  5
E3
330
1F
100
AcDbEntity
  8
0-0
  6
Continuous
 62
     3
370
    13
100
AcDbLine
 10
441.7380977701987
 20
172.0480387945524
 30
0.0
 11
445.7380119910599
 21
172.0480387945524
 31
0.0
  0
LINE
  5
E4
330
1F
100
AcDbEntity
  8
0-0
  6
Continuous
 62
     3
370
    13
100
AcDbLine
 10
441.7380977701987
 20
164.5479398186233
 30
0.0
 11
445.7380119910599
 21
164.5479398186233
 31
0.0
  0
LINE
  5
E5
330
1F
100
AcDbEntity
  8
0-0
  6
Continuous
 62
     3
370
    13
100
AcDbLine
 10
441.7380977701987
 20
152.0480222985643
 30
0.0
 11
445.7380119910599
 21
152.0480222985643
 31
0.0
  0
LINE
  5
E6
330
1F
100
AcDbEntity
  8
0-0
  6
Continuous
 62
     3
370
    13
100
AcDbLine
 10
441.7380977701987
 20
159.5479728105998
 30
0.0
 11
445.7380119910599
 21
159.5479728105998
 31
0.0
  0
LINE
  5
E7
330
1F
100
AcDbEntity
  8
0-0
  6
Continuous
 62
     3
370
    13
100
AcDbLine
 10
441.7380977701987
 20
147.0480552905407
 30
0.0
 11
445.7380119910599
 21
147.0480552905407
 31
0.0
  0
LINE
  5
E8
330
1F
100
AcDbEntity
  8
0-0
  6
Continuous
 62
     3
370
    13
100
AcDbLine
 10
479.7380251878505
 20
468.2980140505703
 30
0.0
 11
479.7380251878505
 21
168.2979893065879
 31
0.0
  0
LINE
  5
E9
330
1F
100
AcDbEntity
  8
0-0
  6
Continuous
 62
     3
370
    13
100
AcDbLine
 10
479.7380251878505
 20
168.2979893065879
 30
0.0
 11
479.7487145881884
 21
168.277055897593
 31
0.0
  0
LINE
  5
EA
330
1F
100
AcDbEntity
  8
0-0
  6
Continuous
 62
     3
370
    13
100
AcDbLine
 10
441.7380977701987
 20
172.0480387945524
 30
0.0
 11
441.7380977701987
 21
164.5479398186233
 31
0.0
  0
LINE
  5
EB
330
1F
100
AcDbEntity
  8
0-0
  6
Continuous
 62
     3
370
    13
100
AcDbLine
 10
441.7380977701987
 20
159.5479728105998
 30
0.0
 11
441.7380977701987
 21
152.0480222985643
 31
0.0
  0
LINE
  5
EC
330
1F
100
AcDbEntity
  8
0-0
  6
Continuous
 62
     3
370
    13
100
AcDbLine
 10
445.7380119910599
 20
177.0480058025762
 30
0.0
 11
445.7380119910599
 21
172.0480387945524
 31
0.0
  0
LINE
  5
ED
330
1F
100
AcDbEntity
  8
0-0
  6
Continuous
 62
     3
370
    13
100
AcDbLine
 10
445.7380119910599
 20
164.5479398186233
 30
0.0
 11
445.7380119910599
 21
159.5479728105998
 31
0.0
  0
LINE
  5
EE
330
1F
100
AcDbEntity
  8
0-0
  6
Continuous
 62
     3
370
    13
100
AcDbLine
 10
441.7380977701987
 20
184.5479563146116
 30
0.0
 11
441.7380977701987
 21
177.0480058025762
 31
0.0
  0
LINE
  5
EF
330
1F
100
AcDbEntity
  8
0-0
  6
Continuous
 62
     3
370
    13
100
AcDbLine
 10
441.7380977701987
 20
184.5479563146116
 30
0.0
 11
445.7380119910599
 21
184.5479563146116
 31
0.0
  0
LINE
  5
F0
330
1F
100
AcDbEntity
  8
0-0
  6
Continuous
 62
     3
370
    13
100
AcDbLine
 10
441.7380977701987
 20
147.0480552905407
 30
0.0
 11
441.7380977701987
 21
139.5481047785052
 31
0.0
  0
LINE
  5
F1
330
1F
100
AcDbEntity
  8
0-0
  6
Continuous
 62
     3
370
    13
100
AcDbLine
 10
441.7380977701987
 20
139.5481047785052
 30
0.0
 11
445.7380119910599
 21
139.5481047785052
 31
0.0
  0
LINE
  5
F2
330
1F
100
AcDbEntity
  8
0-0
  6
Continuous
 62
     3
370
    13
100
AcDbLine
 10
476.0412742376818
 20
156.0918818319259
 30
0.0
 11
466.8626424809249
 21
142.3282396497044
 31
0.0
  0
LINE
  5
F3
330
1F
100
AcDbEntity
  8
0-0
  6
Continuous
 62
     3
370
    13
100
AcDbLine
 10
445.7380119910599
 20
139.5481047785052
 30
0.0
 11
445.7380119910599
 21
135.3909672943413
 31
0.0
  0
LINE
  5
F4
330
1F
100
AcDbEntity
  8
0-0
  6
Continuous
 62
     3
370
    13
100
AcDbLine
 10
446.1949838555028
 20
135.2386433395271
 30
0.0
 11
445.7380119910599
 21
135.3909672943413
 31
0.0
  0
LINE
  5
F5
330
1F
100
AcDbEntity
  8
0-0
  6
Continuous
 62
     3
370
    13
100
AcDbLine
 10
445.7380119910599
 20
186.7370564254646
 30
0.0
 11
445.7380119910599
 21
184.5479563146116
 31
0.0
  0
LINE
  5
F6
330
1F
100
AcDbEntity
  8
0-0
  6
Continuous
 62
     3
370
    13
100
AcDbLine
 10
445.7380119910599
 20
152.0480222985643
 30
0.0
 11
445.7380119910599
 21
147.0480552905407
 31
0.0
  0
LINE
  5
F7
330
1F
100
AcDbEntity
  8
0-0
  6
JWW_CENTER1
 62
     3
370
    13
100
AcDbLine
 10
428.1934398310093
 20
168.2979893065879
 30
0.0
 11
491.0753219572761
 21
168.2979893065879
 31
0.0
  0
LINE
  5
F8
330
1F
100
AcDbEntity
  8
0-0
  6
JWW_CENTER1
 62
     3
370
    13
100
AcDbLine
 10
457.7380515814318
 20
777.6646258405831
 30
0.0
 11
457.7380515814318
 21
129.6188395758024
 31
0.0
  0
LINE
  5
F9
330
1F
100
AcDbEntity
  8
0-0
  6
JWW_CENTER1
 62
     3
370
    13
100
AcDbLine
 10
-546.6896695967779
 20
-196.566875558277
 30
0.0
 11
108.3667301867947
 21
-196.566875558277
 31
0.0
  0
LINE
  5
FA
330
1F
100
AcDbEntity
  8
0-0
  6
Continuous
 62
     3
370
    13
100
AcDbLine
 10
-518.4782636107137
 20
-218.5668491646959
 30
0.0
 11
81.52193434114439
 21
-218.5668491646959
 31
0.0
  0
LINE
  5
FB
330
1F
100
AcDbEntity
  8
0-0
  6
Continuous
 62
     3
370
    13
100
AcDbLine
 10
-518.4782636107137
 20
-174.5669019518581
 30
0.0
 11
-484.4782504139233
 21
-174.5669019518581
 31
0.0
  0
LINE
  5
FC
330
1F
100
AcDbEntity
  8
0-0
  6
Continuous
 62
     3
370
    13
100
AcDbLine
 10
-484.4782504139233
 20
-174.5669019518581
 30
0.0
 11
-478.4782306187373
 21
-184.5668359679053
 31
0.0
  0
LINE
  5
FD
330
1F
100
AcDbEntity
  8
0-0
  6
Continuous
 62
     3
370
    13
100
AcDbLine
 10
47.52192114435394
 20
-174.5669019518581
 30
0.0
 11
41.52190134916815
 21
-184.5668359679053
 31
0.0
  0
LINE
  5
FE
330
1F
100
AcDbEntity
  8
0-0
  6
Continuous
 62
     3
370
    13
100
AcDbLine
 10
81.52193434114439
 20
-174.5669019518581
 30
0.0
 11
47.52192114435394
 21
-174.5669019518581
 31
0.0
  0
LINE
  5
FF
330
1F
100
AcDbEntity
  8
0-0
  6
Continuous
 62
     3
370
    13
100
AcDbLine
 10
-480.8782979223693
 20
-180.5667732831503
 30
0.0
 11
43.92196865279986
 21
-180.5667732831503
 31
0.0
  0
LINE
  5
100
330
1F
100
AcDbEntity
  8
0-0
  6
Continuous
 62
     3
370
    13
100
AcDbLine
 10
-478.4782306187373
 20
-184.5668359679053
 30
0.0
 11
41.52190134916815
 21
-184.5668359679053
 31
0.0
  0
LINE
  5
101
330
1F
100
AcDbEntity
  8
0-0
  6
Continuous
 62
     3
370
    13
100
AcDbLine
 10
-518.4782636107137
 20
146.298015700169
 30
0.0
 11
-483.4564476663514
 21
146.298015700169
 31
0.0
  0
LINE
  5
102
330
1F
100
AcDbEntity
  8
0-0
  6
Continuous
 62
     3
370
    13
100
AcDbLine
 10
-476.7266536022678
 20
171.2979992041809
 30
0.0
 11
-465.2281250444131
 21
171.2979992041809
 31
0.0
  0
LINE
  5
103
330
1F
100
AcDbEntity
  8
0-0
  6
Continuous
 62
     3
370
    13
100
AcDbLine
 10
-478.4311675644722
 20
163.7980486921454
 30
0.0
 11
-465.2281250444131
 21
163.7980486921454
 31
0.0
  0
LINE
  5
104
330
1F
100
AcDbEntity
  8
0-0
  6
Continuous
 62
     3
370
    13
100
AcDbLine
 10
-473.2131070967779
 20
147.2980684873312
 30
0.0
 11
-465.2281250444131
 21
147.2980684873312
 31
0.0
  0
LINE
  5
105
330
1F
100
AcDbEntity
  8
0-0
  6
Continuous
 62
     3
370
    13
100
AcDbLine
 10
-465.1435006250719
 20
183.7979167242399
 30
0.0
 11
-450.2282240203422
 21
183.7979167242399
 31
0.0
  0
LINE
  5
106
330
1F
100
AcDbEntity
  8
0-0
  6
Continuous
 62
     3
370
    13
100
AcDbLine
 10
-466.7282042251564
 20
176.2979662122044
 30
0.0
 11
-450.2282240203422
 21
176.2979662122044
 31
0.0
  0
LINE
  5
107
330
1F
100
AcDbEntity
  8
0-0
  6
Continuous
 62
     3
370
    13
100
AcDbLine
 10
-460.47817123318
 20
134.2979761097974
 30
0.0
 11
23.52184196361065
 21
134.2979761097974
 31
0.0
  0
LINE
  5
108
330
1F
100
AcDbEntity
  8
0-0
  6
Continuous
 62
     3
370
    13
100
AcDbLine
 10
81.52193434114439
 20
146.298015700169
 30
0.0
 11
46.50019262872894
 21
146.298015700169
 31
0.0
  0
LINE
  5
109
330
1F
100
AcDbEntity
  8
0-0
  6
Continuous
 62
     3
370
    13
100
AcDbLine
 10
28.18717135550252
 20
183.7979167242399
 30
0.0
 11
13.27189475077284
 21
183.7979167242399
 31
0.0
  0
LINE
  5
10A
330
1F
100
AcDbEntity
  8
0-0
  6
Continuous
 62
     3
370
    13
100
AcDbLine
 10
39.77032433269846
 20
171.2979992041809
 30
0.0
 11
28.27179577484378
 21
171.2979992041809
 31
0.0
  0
LINE
  5
10B
330
1F
100
AcDbEntity
  8
0-0
  6
Continuous
 62
     3
370
    13
100
AcDbLine
 10
41.47483829490283
 20
163.7980486921454
 30
0.0
 11
28.27179577484378
 21
163.7980486921454
 31
0.0
  0
LINE
  5
10C
330
1F
100
AcDbEntity
  8
0-0
  6
Continuous
 62
     3
370
    13
100
AcDbLine
 10
36.25677782720862
 20
147.2980684873312
 30
0.0
 11
28.27179577484378
 21
147.2980684873312
 31
0.0
  0
LINE
  5
10D
330
1F
100
AcDbEntity
  8
0-0
  6
Continuous
 62
     3
370
    13
100
AcDbLine
 10
29.77187495558706
 20
176.2979662122044
 30
0.0
 11
13.27189475077284
 21
176.2979662122044
 31
0.0
  0
LINE
  5
10E
330
1F
100
AcDbEntity
  8
0-0
  6
JWW_CENTER1
 62
     3
370
    13
100
AcDbLine
 10
81.52193434114439
 20
-165.2080350282939
 30
0.0
 11
81.52193434114439
 21
-224.5068153149282
 31
0.0
  0
LINE
  5
10F
330
1F
100
AcDbEntity
  8
0-0
  6
JWW_CENTER1
 62
     3
370
    13
100
AcDbLine
 10
-518.4782636107137
 20
-167.0394485035367
 30
0.0
 11
-518.4782636107137
 21
-224.2441084552365
 31
0.0
  0
ARC
  5
110
330
1F
100
AcDbEntity
  8
0-0
  6
Continuous
 62
     3
370
    13
100
AcDbCircle
 10
-518.4782636107137
 20
480.2981278728888
 30
0.0
 40
12.00000015464989
100
AcDbArc
 50
195.1271667480469
 51
344.8728332519531
  0
ARC
  5
111
330
1F
100
AcDbEntity
  8
0-0
  6
Continuous
 62
     3
370
    13
100
AcDbCircle
 10
-518.4782636107137
 20
168.2979893065879
 30
0.0
 40
21.99999912365063
100
AcDbArc
 50
180.0
 51
270.0
  0
ARC
  5
112
330
1F
100
AcDbEntity
  8
0-0
  6
JWW_CENTER1
 62
     3
370
    13
100
AcDbCircle
 10
-504.4781184460178
 20
182.2979860073904
 30
0.0
 40
14.00000018042487
100
AcDbArc
 50
180.0
 51
270.0
  0
ARC
  5
113
330
1F
100
AcDbEntity
  8
0-0
  6
Continuous
 62
     3
370
    13
100
AcDbCircle
 10
-490.4782702091091
 20
196.2979827081927
 30
0.0
 40
6.000000077324945
100
AcDbArc
 50
180.0
 51
270.0
  0
ARC
  5
114
330
1F
100
AcDbEntity
  8
0-0
  6
Continuous
 62
     3
370
    13
100
AcDbCircle
 10
-256.728179481174
 20
156.0480849833195
 30
0.0
 40
3.749975545986279
100
AcDbArc
 50
90.0
 51
270.0
  0
ARC
  5
115
330
1F
100
AcDbEntity
  8
0-0
  6
Continuous
 62
     3
370
    13
100
AcDbCircle
 10
-240.228125044413
 20
156.0479365194259
 30
0.0
 40
3.749975256017737
100
AcDbArc
 50
270.0
 51
90.0
  0
ARC
  5
116
330
1F
100
AcDbEntity
  8
0-0
  6
Continuous
 62
     3
370
    13
100
AcDbCircle
 10
-226.7281547371917
 20
156.0480849833195
 30
0.0
 40
3.749975256017737
100
AcDbArc
 50
90.0
 51
270.0
  0
ARC
  5
117
330
1F
100
AcDbEntity
  8
0-0
  6
Continuous
 62
     3
370
    13
100
AcDbCircle
 10
-225.2281497883953
 20
143.5480189993666
 30
0.0
 40
3.749975545986279
100
AcDbArc
 50
270.0
 51
90.0
  0
ARC
  5
118
330
1F
100
AcDbEntity
  8
0-0
  6
Continuous
 62
     3
370
    13
100
AcDbCircle
 10
-271.7282289691386
 20
143.5481674632602
 30
0.0
 40
3.749975256017737
100
AcDbArc
 50
90.0
 51
270.0
  0
ARC
  5
119
330
1F
100
AcDbEntity
  8
0-0
  6
Continuous
 62
     3
370
    13
100
AcDbCircle
 10
-241.7282042251563
 20
143.5481674632602
 30
0.0
 40
3.749975545986279
100
AcDbArc
 50
90.0
 51
270.0
  0
ARC
  5
11A
330
1F
100
AcDbEntity
  8
0-0
  6
Continuous
 62
     3
370
    13
100
AcDbCircle
 10
-255.2281745323775
 20
143.5480189993666
 30
0.0
 40
3.749975256017737
100
AcDbArc
 50
270.0
 51
90.0
  0
ARC
  5
11B
330
1F
100
AcDbEntity
  8
0-0
  6
Continuous
 62
     3
370
    13
100
AcDbCircle
 10
-256.728179481174
 20
180.048015700169
 30
0.0
 40
3.749975545986279
100
AcDbArc
 50
90.0
 51
270.0
  0
ARC
  5
11C
330
1F
100
AcDbEntity
  8
0-0
  6
Continuous
 62
     3
370
    13
100
AcDbCircle
 10
-240.228125044413
 20
180.0478672362754
 30
0.0
 40
3.749975256017737
100
AcDbArc
 50
270.0
 51
90.0
  0
ARC
  5
11D
330
1F
100
AcDbEntity
  8
0-0
  6
Continuous
 62
     3
370
    13
100
AcDbCircle
 10
-226.7281547371917
 20
180.048015700169
 30
0.0
 40
3.749975256017737
100
AcDbArc
 50
90.0
 51
270.0
  0
ARC
  5
11E
330
1F
100
AcDbEntity
  8
0-0
  6
Continuous
 62
     3
370
    13
100
AcDbCircle
 10
-225.2281497883953
 20
167.5479497162163
 30
0.0
 40
3.749975545986279
100
AcDbArc
 50
270.0
 51
90.0
  0
ARC
  5
11F
330
1F
100
AcDbEntity
  8
0-0
  6
Continuous
 62
     3
370
    13
100
AcDbCircle
 10
-271.7282289691386
 20
167.5480981801099
 30
0.0
 40
3.749975256017737
100
AcDbArc
 50
90.0
 51
270.0
  0
ARC
  5
120
330
1F
100
AcDbEntity
  8
0-0
  6
Continuous
 62
     3
370
    13
100
AcDbCircle
 10
-241.7282042251563
 20
167.5480981801099
 30
0.0
 40
3.749975545986279
100
AcDbArc
 50
90.0
 51
270.0
  0
ARC
  5
121
330
1F
100
AcDbEntity
  8
0-0
  6
Continuous
 62
     3
370
    13
100
AcDbCircle
 10
-255.2281745323775
 20
167.5479497162163
 30
0.0
 40
3.749975256017737
100
AcDbArc
 50
270.0
 51
90.0
  0
ARC
  5
122
330
1F
100
AcDbEntity
  8
0-0
  6
Continuous
 62
     3
370
    13
100
AcDbCircle
 10
-286.7282042251563
 20
156.0480849833195
 30
0.0
 40
3.749975545986279
100
AcDbArc
 50
90.0
 51
270.0
  0
ARC
  5
123
330
1F
100
AcDbEntity
  8
0-0
  6
Continuous
 62
     3
370
    13
100
AcDbCircle
 10
-270.2281497883953
 20
156.0479365194259
 30
0.0
 40
3.749975256017737
100
AcDbArc
 50
270.0
 51
90.0
  0
ARC
  5
124
330
1F
100
AcDbEntity
  8
0-0
  6
Continuous
 62
     3
370
    13
100
AcDbCircle
 10
-301.7282537131208
 20
143.5481674632602
 30
0.0
 40
3.749975256017737
100
AcDbArc
 50
90.0
 51
270.0
  0
ARC
  5
125
330
1F
100
AcDbEntity
  8
0-0
  6
Continuous
 62
     3
370
    13
100
AcDbCircle
 10
-285.2281992763599
 20
143.5480189993666
 30
0.0
 40
3.749975256017737
100
AcDbArc
 50
270.0
 51
90.0
  0
ARC
  5
126
330
1F
100
AcDbEntity
  8
0-0
  6
Continuous
 62
     3
370
    13
100
AcDbCircle
 10
-286.7282042251563
 20
180.048015700169
 30
0.0
 40
3.749975545986279
100
AcDbArc
 50
90.0
 51
270.0
  0
ARC
  5
127
330
1F
100
AcDbEntity
  8
0-0
  6
Continuous
 62
     3
370
    13
100
AcDbCircle
 10
-270.2281497883953
 20
180.0478672362754
 30
0.0
 40
3.749975256017737
100
AcDbArc
 50
270.0
 51
90.0
  0
ARC
  5
128
330
1F
100
AcDbEntity
  8
0-0
  6
Continuous
 62
     3
370
    13
100
AcDbCircle
 10
-301.7282537131208
 20
167.5480981801099
 30
0.0
 40
3.749975256017737
100
AcDbArc
 50
90.0
 51
270.0
  0
ARC
  5
129
330
1F
100
AcDbEntity
  8
0-0
  6
Continuous
 62
     3
370
    13
100
AcDbCircle
 10
-285.2281992763599
 20
167.5479497162163
 30
0.0
 40
3.749975256017737
100
AcDbArc
 50
270.0
 51
90.0
  0
ARC
  5
12A
330
1F
100
AcDbEntity
  8
0-0
  6
Continuous
 62
     3
370
    13
100
AcDbCircle
 10
-316.7281547371917
 20
156.0480849833195
 30
0.0
 40
3.749975545986279
100
AcDbArc
 50
90.0
 51
270.0
  0
ARC
  5
12B
330
1F
100
AcDbEntity
  8
0-0
  6
Continuous
 62
     3
370
    13
100
AcDbCircle
 10
-300.2281003004308
 20
156.0479365194259
 30
0.0
 40
3.749975256017737
100
AcDbArc
 50
270.0
 51
90.0
  0
ARC
  5
12C
330
1F
100
AcDbEntity
  8
0-0
  6
Continuous
 62
     3
370
    13
100
AcDbCircle
 10
-331.7282042251563
 20
143.5481674632602
 30
0.0
 40
3.749975256017737
100
AcDbArc
 50
90.0
 51
270.0
  0
ARC
  5
12D
330
1F
100
AcDbEntity
  8
0-0
  6
Continuous
 62
     3
370
    13
100
AcDbCircle
 10
-315.2281497883953
 20
143.5480189993666
 30
0.0
 40
3.749975256017737
100
AcDbArc
 50
270.0
 51
90.0
  0
ARC
  5
12E
330
1F
100
AcDbEntity
  8
0-0
  6
Continuous
 62
     3
370
    13
100
AcDbCircle
 10
-316.7281547371917
 20
180.048015700169
 30
0.0
 40
3.749975545986279
100
AcDbArc
 50
90.0
 51
270.0
  0
ARC
  5
12F
330
1F
100
AcDbEntity
  8
0-0
  6
Continuous
 62
     3
370
    13
100
AcDbCircle
 10
-300.2281003004308
 20
180.0478672362754
 30
0.0
 40
3.749975256017737
100
AcDbArc
 50
270.0
 51
90.0
  0
ARC
  5
130
330
1F
100
AcDbEntity
  8
0-0
  6
Continuous
 62
     3
370
    13
100
AcDbCircle
 10
-331.7282042251563
 20
167.5480981801099
 30
0.0
 40
3.749975256017737
100
AcDbArc
 50
90.0
 51
270.0
  0
ARC
  5
131
330
1F
100
AcDbEntity
  8
0-0
  6
Continuous
 62
     3
370
    13
100
AcDbCircle
 10
-315.2281497883953
 20
167.5479497162163
 30
0.0
 40
3.749975256017737
100
AcDbArc
 50
270.0
 51
90.0
  0
ARC
  5
132
330
1F
100
AcDbEntity
  8
0-0
  6
Continuous
 62
     3
370
    13
100
AcDbCircle
 10
-346.728179481174
 20
156.0480849833195
 30
0.0
 40
3.749975545986279
100
AcDbArc
 50
90.0
 51
270.0
  0
ARC
  5
133
330
1F
100
AcDbEntity
  8
0-0
  6
Continuous
 62
     3
370
    13
100
AcDbCircle
 10
-330.2281250444131
 20
156.0479365194259
 30
0.0
 40
3.749975256017737
100
AcDbArc
 50
270.0
 51
90.0
  0
ARC
  5
134
330
1F
100
AcDbEntity
  8
0-0
  6
Continuous
 62
     3
370
    13
100
AcDbCircle
 10
-361.7282289691386
 20
143.5481674632602
 30
0.0
 40
3.749975256017737
100
AcDbArc
 50
90.0
 51
270.0
  0
ARC
  5
135
330
1F
100
AcDbEntity
  8
0-0
  6
Continuous
 62
     3
370
    13
100
AcDbCircle
 10
-345.2281745323775
 20
143.5480189993666
 30
0.0
 40
3.749975256017737
100
AcDbArc
 50
270.0
 51
90.0
  0
ARC
  5
136
330
1F
100
AcDbEntity
  8
0-0
  6
Continuous
 62
     3
370
    13
100
AcDbCircle
 10
-346.728179481174
 20
180.048015700169
 30
0.0
 40
3.749975545986279
100
AcDbArc
 50
90.0
 51
270.0
  0
ARC
  5
137
330
1F
100
AcDbEntity
  8
0-0
  6
Continuous
 62
     3
370
    13
100
AcDbCircle
 10
-330.2281250444131
 20
180.0478672362754
 30
0.0
 40
3.749975256017737
100
AcDbArc
 50
270.0
 51
90.0
  0
ARC
  5
138
330
1F
100
AcDbEntity
  8
0-0
  6
Continuous
 62
     3
370
    13
100
AcDbCircle
 10
-361.7282289691386
 20
167.5480981801099
 30
0.0
 40
3.749975256017737
100
AcDbArc
 50
90.0
 51
270.0
  0
ARC
  5
139
330
1F
100
AcDbEntity
  8
0-0
  6
Continuous
 62
     3
370
    13
100
AcDbCircle
 10
-345.2281745323775
 20
167.5479497162163
 30
0.0
 40
3.749975256017737
100
AcDbArc
 50
270.0
 51
90.0
  0
ARC
  5
13A
330
1F
100
AcDbEntity
  8
0-0
  6
Continuous
 62
     3
370
    13
100
AcDbCircle
 10
-376.7282042251563
 20
156.0480849833195
 30
0.0
 40
3.749975545986279
100
AcDbArc
 50
90.0
 51
270.0
  0
ARC
  5
13B
330
1F
100
AcDbEntity
  8
0-0
  6
Continuous
 62
     3
370
    13
100
AcDbCircle
 10
-360.2281497883953
 20
156.0479365194259
 30
0.0
 40
3.749975256017737
100
AcDbArc
 50
270.0
 51
90.0
  0
ARC
  5
13C
330
1F
100
AcDbEntity
  8
0-0
  6
Continuous
 62
     3
370
    13
100
AcDbCircle
 10
-391.7282537131208
 20
143.5481674632602
 30
0.0
 40
3.749975256017737
100
AcDbArc
 50
90.0
 51
270.0
  0
ARC
  5
13D
330
1F
100
AcDbEntity
  8
0-0
  6
Continuous
 62
     3
370
    13
100
AcDbCircle
 10
-375.2281992763599
 20
143.5480189993666
 30
0.0
 40
3.749975256017737
100
AcDbArc
 50
270.0
 51
90.0
  0
ARC
  5
13E
330
1F
100
AcDbEntity
  8
0-0
  6
Continuous
 62
     3
370
    13
100
AcDbCircle
 10
-376.7282042251563
 20
180.048015700169
 30
0.0
 40
3.749975545986279
100
AcDbArc
 50
90.0
 51
270.0
  0
ARC
  5
13F
330
1F
100
AcDbEntity
  8
0-0
  6
Continuous
 62
     3
370
    13
100
AcDbCircle
 10
-360.2281497883953
 20
180.0478672362754
 30
0.0
 40
3.749975256017737
100
AcDbArc
 50
270.0
 51
90.0
  0
ARC
  5
140
330
1F
100
AcDbEntity
  8
0-0
  6
Continuous
 62
     3
370
    13
100
AcDbCircle
 10
-391.7282537131208
 20
167.5480981801099
 30
0.0
 40
3.749975256017737
100
AcDbArc
 50
90.0
 51
270.0
  0
ARC
  5
141
330
1F
100
AcDbEntity
  8
0-0
  6
Continuous
 62
     3
370
    13
100
AcDbCircle
 10
-375.2281992763599
 20
167.5479497162163
 30
0.0
 40
3.749975256017737
100
AcDbArc
 50
270.0
 51
90.0
  0
ARC
  5
142
330
1F
100
AcDbEntity
  8
0-0
  6
Continuous
 62
     3
370
    13
100
AcDbCircle
 10
-406.7281547371917
 20
156.0480849833195
 30
0.0
 40
3.749975545986279
100
AcDbArc
 50
90.0
 51
270.0
  0
ARC
  5
143
330
1F
100
AcDbEntity
  8
0-0
  6
Continuous
 62
     3
370
    13
100
AcDbCircle
 10
-390.2280260684841
 20
156.0479365194259
 30
0.0
 40
3.749975256017737
100
AcDbArc
 50
270.0
 51
90.0
  0
ARC
  5
144
330
1F
100
AcDbEntity
  8
0-0
  6
Continuous
 62
     3
370
    13
100
AcDbCircle
 10
-421.7282042251562
 20
143.5481674632602
 30
0.0
 40
3.749975256017737
100
AcDbArc
 50
90.0
 51
270.0
  0
ARC
  5
145
330
1F
100
AcDbEntity
  8
0-0
  6
Continuous
 62
     3
370
    13
100
AcDbCircle
 10
-405.2282240203421
 20
143.5480189993666
 30
0.0
 40
3.749975256017737
100
AcDbArc
 50
270.0
 51
90.0
  0
ARC
  5
146
330
1F
100
AcDbEntity
  8
0-0
  6
Continuous
 62
     3
370
    13
100
AcDbCircle
 10
-406.7281547371917
 20
180.048015700169
 30
0.0
 40
3.749975545986279
100
AcDbArc
 50
90.0
 51
270.0
  0
ARC
  5
147
330
1F
100
AcDbEntity
  8
0-0
  6
Continuous
 62
     3
370
    13
100
AcDbCircle
 10
-390.2280260684841
 20
180.0478672362754
 30
0.0
 40
3.749975256017737
100
AcDbArc
 50
270.0
 51
90.0
  0
ARC
  5
148
330
1F
100
AcDbEntity
  8
0-0
  6
Continuous
 62
     3
370
    13
100
AcDbCircle
 10
-421.7282042251562
 20
167.5480981801099
 30
0.0
 40
3.749975256017737
100
AcDbArc
 50
90.0
 51
270.0
  0
ARC
  5
149
330
1F
100
AcDbEntity
  8
0-0
  6
Continuous
 62
     3
370
    13
100
AcDbCircle
 10
-405.2282240203421
 20
167.5479497162163
 30
0.0
 40
3.749975256017737
100
AcDbArc
 50
270.0
 51
90.0
  0
ARC
  5
14A
330
1F
100
AcDbEntity
  8
0-0
  6
Continuous
 62
     3
370
    13
100
AcDbCircle
 10
-436.7281052492272
 20
156.0480849833195
 30
0.0
 40
3.749975545986279
100
AcDbArc
 50
90.0
 51
270.0
  0
ARC
  5
14B
330
1F
100
AcDbEntity
  8
0-0
  6
Continuous
 62
     3
370
    13
100
AcDbCircle
 10
-420.2281250444131
 20
156.0479365194259
 30
0.0
 40
3.749975256017737
100
AcDbArc
 50
270.0
 51
90.0
  0
ARC
  5
14C
330
1F
100
AcDbEntity
  8
0-0
  6
Continuous
 62
     3
370
    13
100
AcDbCircle
 10
-451.7283032010853
 20
143.5481674632602
 30
0.0
 40
3.749975256017737
100
AcDbArc
 50
90.0
 51
270.0
  0
ARC
  5
14D
330
1F
100
AcDbEntity
  8
0-0
  6
Continuous
 62
     3
370
    13
100
AcDbCircle
 10
-435.2281745323776
 20
143.5480189993666
 30
0.0
 40
3.749975256017737
100
AcDbArc
 50
270.0
 51
90.0
  0
ARC
  5
14E
330
1F
100
AcDbEntity
  8
0-0
  6
Continuous
 62
     3
370
    13
100
AcDbCircle
 10
-436.7281052492272
 20
180.048015700169
 30
0.0
 40
3.749975545986279
100
AcDbArc
 50
90.0
 51
270.0
  0
ARC
  5
14F
330
1F
100
AcDbEntity
  8
0-0
  6
Continuous
 62
     3
370
    13
100
AcDbCircle
 10
-420.2281250444131
 20
180.0478672362754
 30
0.0
 40
3.749975256017737
100
AcDbArc
 50
270.0
 51
90.0
  0
ARC
  5
150
330
1F
100
AcDbEntity
  8
0-0
  6
Continuous
 62
     3
370
    13
100
AcDbCircle
 10
-451.7283032010853
 20
167.5480981801099
 30
0.0
 40
3.749975256017737
100
AcDbArc
 50
90.0
 51
270.0
  0
ARC
  5
151
330
1F
100
AcDbEntity
  8
0-0
  6
Continuous
 62
     3
370
    13
100
AcDbCircle
 10
-435.2281745323776
 20
167.5479497162163
 30
0.0
 40
3.749975256017737
100
AcDbArc
 50
270.0
 51
90.0
  0
ARC
  5
152
330
1F
100
AcDbEntity
  8
0-0
  6
Continuous
 62
     3
370
    13
100
AcDbCircle
 10
-466.7282042251564
 20
156.0480849833195
 30
0.0
 40
3.749975545986279
100
AcDbArc
 50
90.0
 51
270.0
  0
ARC
  5
153
330
1F
100
AcDbEntity
  8
0-0
  6
Continuous
 62
     3
370
    13
100
AcDbCircle
 10
-450.2282240203422
 20
156.0479365194259
 30
0.0
 40
3.749975256017737
100
AcDbArc
 50
270.0
 51
90.0
  0
ARC
  5
154
330
1F
100
AcDbEntity
  8
0-0
  6
Continuous
 62
     3
370
    13
100
AcDbCircle
 10
-450.2282240203422
 20
180.0478672362754
 30
0.0
 40
3.749975256017737
100
AcDbArc
 50
270.0
 51
90.0
  0
ARC
  5
155
330
1F
100
AcDbEntity
  8
0-0
  6
Continuous
 62
     3
370
    13
100
AcDbCircle
 10
-465.2281250444131
 20
167.5479497162163
 30
0.0
 40
3.749975256017737
100
AcDbArc
 50
270.0
 51
90.0
  0
ARC
  5
156
330
1F
100
AcDbEntity
  8
0-0
  6
Continuous
 62
     3
370
    13
100
AcDbCircle
 10
81.52193434114439
 20
480.2981278728888
 30
0.0
 40
12.00000015464989
100
AcDbArc
 50
195.1271667480469
 51
344.8728332519531
  0
ARC
  5
157
330
1F
100
AcDbEntity
  8
0-0
  6
Continuous
 62
     3
370
    13
100
AcDbCircle
 10
81.52193434114439
 20
168.2979893065879
 30
0.0
 40
21.99999912365063
100
AcDbArc
 50
270.0
 51
0.0
  0
ARC
  5
158
330
1F
100
AcDbEntity
  8
0-0
  6
JWW_CENTER1
 62
     3
370
    13
100
AcDbCircle
 10
67.52178917644846
 20
182.2979860073904
 30
0.0
 40
14.00000018042487
100
AcDbArc
 50
270.0
 51
0.0
  0
ARC
  5
159
330
1F
100
AcDbEntity
  8
0-0
  6
Continuous
 62
     3
370
    13
100
AcDbCircle
 10
53.5219409395397
 20
196.2979827081927
 30
0.0
 40
6.000000077324945
100
AcDbArc
 50
270.0
 51
0.0
  0
ARC
  5
15A
330
1F
100
AcDbEntity
  8
0-0
  6
Continuous
 62
     3
370
    13
100
AcDbCircle
 10
-180.2281497883953
 20
156.0480849833195
 30
0.0
 40
3.749975545986279
100
AcDbArc
 50
270.0
 51
90.0
  0
ARC
  5
15B
330
1F
100
AcDbEntity
  8
0-0
  6
Continuous
 62
     3
370
    13
100
AcDbCircle
 10
-196.7282042251563
 20
156.0479365194259
 30
0.0
 40
3.749975256017737
100
AcDbArc
 50
90.0
 51
270.0
  0
ARC
  5
15C
330
1F
100
AcDbEntity
  8
0-0
  6
Continuous
 62
     3
370
    13
100
AcDbCircle
 10
-210.2281745323775
 20
156.0480849833195
 30
0.0
 40
3.749975256017737
100
AcDbArc
 50
270.0
 51
90.0
  0
ARC
  5
15D
330
1F
100
AcDbEntity
  8
0-0
  6
Continuous
 62
     3
370
    13
100
AcDbCircle
 10
-211.728179481174
 20
143.5480189993666
 30
0.0
 40
3.749975545986279
100
AcDbArc
 50
90.0
 51
270.0
  0
ARC
  5
15E
330
1F
100
AcDbEntity
  8
0-0
  6
Continuous
 62
     3
370
    13
100
AcDbCircle
 10
-165.2281003004308
 20
143.5481674632602
 30
0.0
 40
3.749975256017737
100
AcDbArc
 50
270.0
 51
90.0
  0
ARC
  5
15F
330
1F
100
AcDbEntity
  8
0-0
  6
Continuous
 62
     3
370
    13
100
AcDbCircle
 10
-195.228125044413
 20
143.5481674632602
 30
0.0
 40
3.749975545986279
100
AcDbArc
 50
270.0
 51
90.0
  0
ARC
  5
160
330
1F
100
AcDbEntity
  8
0-0
  6
Continuous
 62
     3
370
    13
100
AcDbCircle
 10
-181.7281547371917
 20
143.5480189993666
 30
0.0
 40
3.749975256017737
100
AcDbArc
 50
90.0
 51
270.0
  0
ARC
  5
161
330
1F
100
AcDbEntity
  8
0-0
  6
Continuous
 62
     3
370
    13
100
AcDbCircle
 10
-180.2281497883953
 20
180.048015700169
 30
0.0
 40
3.749975545986279
100
AcDbArc
 50
270.0
 51
90.0
  0
ARC
  5
162
330
1F
100
AcDbEntity
  8
0-0
  6
Continuous
 62
     3
370
    13
100
AcDbCircle
 10
-196.7282042251563
 20
180.0478672362754
 30
0.0
 40
3.749975256017737
100
AcDbArc
 50
90.0
 51
270.0
  0
ARC
  5
163
330
1F
100
AcDbEntity
  8
0-0
  6
Continuous
 62
     3
370
    13
100
AcDbCircle
 10
-210.2281745323775
 20
180.048015700169
 30
0.0
 40
3.749975256017737
100
AcDbArc
 50
270.0
 51
90.0
  0
ARC
  5
164
330
1F
100
AcDbEntity
  8
0-0
  6
Continuous
 62
     3
370
    13
100
AcDbCircle
 10
-211.728179481174
 20
167.5479497162163
 30
0.0
 40
3.749975545986279
100
AcDbArc
 50
90.0
 51
270.0
  0
ARC
  5
165
330
1F
100
AcDbEntity
  8
0-0
  6
Continuous
 62
     3
370
    13
100
AcDbCircle
 10
-165.2281003004308
 20
167.5480981801099
 30
0.0
 40
3.749975256017737
100
AcDbArc
 50
270.0
 51
90.0
  0
ARC
  5
166
330
1F
100
AcDbEntity
  8
0-0
  6
Continuous
 62
     3
370
    13
100
AcDbCircle
 10
-195.228125044413
 20
167.5480981801099
 30
0.0
 40
3.749975545986279
100
AcDbArc
 50
270.0
 51
90.0
  0
ARC
  5
167
330
1F
100
AcDbEntity
  8
0-0
  6
Continuous
 62
     3
370
    13
100
AcDbCircle
 10
-181.7281547371917
 20
167.5479497162163
 30
0.0
 40
3.749975256017737
100
AcDbArc
 50
90.0
 51
270.0
  0
ARC
  5
168
330
1F
100
AcDbEntity
  8
0-0
  6
Continuous
 62
     3
370
    13
100
AcDbCircle
 10
-150.228125044413
 20
156.0480849833195
 30
0.0
 40
3.749975545986279
100
AcDbArc
 50
270.0
 51
90.0
  0
ARC
  5
169
330
1F
100
AcDbEntity
  8
0-0
  6
Continuous
 62
     3
370
    13
100
AcDbCircle
 10
-166.728179481174
 20
156.0479365194259
 30
0.0
 40
3.749975256017737
100
AcDbArc
 50
90.0
 51
270.0
  0
ARC
  5
16A
330
1F
100
AcDbEntity
  8
0-0
  6
Continuous
 62
     3
370
    13
100
AcDbCircle
 10
-135.2280755564484
 20
143.5481674632602
 30
0.0
 40
3.749975256017737
100
AcDbArc
 50
270.0
 51
90.0
  0
ARC
  5
16B
330
1F
100
AcDbEntity
  8
0-0
  6
Continuous
 62
     3
370
    13
100
AcDbCircle
 10
-151.7281299932095
 20
143.5480189993666
 30
0.0
 40
3.749975256017737
100
AcDbArc
 50
90.0
 51
270.0
  0
ARC
  5
16C
330
1F
100
AcDbEntity
  8
0-0
  6
Continuous
 62
     3
370
    13
100
AcDbCircle
 10
-150.228125044413
 20
180.048015700169
 30
0.0
 40
3.749975545986279
100
AcDbArc
 50
270.0
 51
90.0
  0
ARC
  5
16D
330
1F
100
AcDbEntity
  8
0-0
  6
Continuous
 62
     3
370
    13
100
AcDbCircle
 10
-166.728179481174
 20
180.0478672362754
 30
0.0
 40
3.749975256017737
100
AcDbArc
 50
90.0
 51
270.0
  0
ARC
  5
16E
330
1F
100
AcDbEntity
  8
0-0
  6
Continuous
 62
     3
370
    13
100
AcDbCircle
 10
-135.2280755564484
 20
167.5480981801099
 30
0.0
 40
3.749975256017737
100
AcDbArc
 50
270.0
 51
90.0
  0
ARC
  5
16F
330
1F
100
AcDbEntity
  8
0-0
  6
Continuous
 62
     3
370
    13
100
AcDbCircle
 10
-151.7281299932095
 20
167.5479497162163
 30
0.0
 40
3.749975256017737
100
AcDbArc
 50
90.0
 51
270.0
  0
ARC
  5
170
330
1F
100
AcDbEntity
  8
0-0
  6
Continuous
 62
     3
370
    13
100
AcDbCircle
 10
-120.2281745323775
 20
156.0480849833195
 30
0.0
 40
3.749975545986279
100
AcDbArc
 50
270.0
 51
90.0
  0
ARC
  5
171
330
1F
100
AcDbEntity
  8
0-0
  6
Continuous
 62
     3
370
    13
100
AcDbCircle
 10
-136.7282289691386
 20
156.0479365194259
 30
0.0
 40
3.749975256017737
100
AcDbArc
 50
90.0
 51
270.0
  0
ARC
  5
172
330
1F
100
AcDbEntity
  8
0-0
  6
Continuous
 62
     3
370
    13
100
AcDbCircle
 10
-105.2281250444129
 20
143.5481674632602
 30
0.0
 40
3.749975256017737
100
AcDbArc
 50
270.0
 51
90.0
  0
ARC
  5
173
330
1F
100
AcDbEntity
  8
0-0
  6
Continuous
 62
     3
370
    13
100
AcDbCircle
 10
-121.7281794811741
 20
143.5480189993666
 30
0.0
 40
3.749975256017737
100
AcDbArc
 50
90.0
 51
270.0
  0
ARC
  5
174
330
1F
100
AcDbEntity
  8
0-0
  6
Continuous
 62
     3
370
    13
100
AcDbCircle
 10
-120.2281745323775
 20
180.048015700169
 30
0.0
 40
3.749975545986279
100
AcDbArc
 50
270.0
 51
90.0
  0
ARC
  5
175
330
1F
100
AcDbEntity
  8
0-0
  6
Continuous
 62
     3
370
    13
100
AcDbCircle
 10
-136.7282289691386
 20
180.0478672362754
 30
0.0
 40
3.749975256017737
100
AcDbArc
 50
90.0
 51
270.0
  0
ARC
  5
176
330
1F
100
AcDbEntity
  8
0-0
  6
Continuous
 62
     3
370
    13
100
AcDbCircle
 10
-105.2281250444129
 20
167.5480981801099
 30
0.0
 40
3.749975256017737
100
AcDbArc
 50
270.0
 51
90.0
  0
ARC
  5
177
330
1F
100
AcDbEntity
  8
0-0
  6
Continuous
 62
     3
370
    13
100
AcDbCircle
 10
-121.7281794811741
 20
167.5479497162163
 30
0.0
 40
3.749975256017737
100
AcDbArc
 50
90.0
 51
270.0
  0
ARC
  5
178
330
1F
100
AcDbEntity
  8
0-0
  6
Continuous
 62
     3
370
    13
100
AcDbCircle
 10
-90.22814978839531
 20
156.0480849833195
 30
0.0
 40
3.749975545986279
100
AcDbArc
 50
270.0
 51
90.0
  0
ARC
  5
179
330
1F
100
AcDbEntity
  8
0-0
  6
Continuous
 62
     3
370
    13
100
AcDbCircle
 10
-106.7282042251562
 20
156.0479365194259
 30
0.0
 40
3.749975256017737
100
AcDbArc
 50
90.0
 51
270.0
  0
ARC
  5
17A
330
1F
100
AcDbEntity
  8
0-0
  6
Continuous
 62
     3
370
    13
100
AcDbCircle
 10
-75.22810030043077
 20
143.5481674632602
 30
0.0
 40
3.749975256017737
100
AcDbArc
 50
270.0
 51
90.0
  0
ARC
  5
17B
330
1F
100
AcDbEntity
  8
0-0
  6
Continuous
 62
     3
370
    13
100
AcDbCircle
 10
-91.7281547371917
 20
143.5480189993666
 30
0.0
 40
3.749975256017737
100
AcDbArc
 50
90.0
 51
270.0
  0
ARC
  5
17C
330
1F
100
AcDbEntity
  8
0-0
  6
Continuous
 62
     3
370
    13
100
AcDbCircle
 10
-90.22814978839531
 20
180.048015700169
 30
0.0
 40
3.749975545986279
100
AcDbArc
 50
270.0
 51
90.0
  0
ARC
  5
17D
330
1F
100
AcDbEntity
  8
0-0
  6
Continuous
 62
     3
370
    13
100
AcDbCircle
 10
-106.7282042251562
 20
180.0478672362754
 30
0.0
 40
3.749975256017737
100
AcDbArc
 50
90.0
 51
270.0
  0
ARC
  5
17E
330
1F
100
AcDbEntity
  8
0-0
  6
Continuous
 62
     3
370
    13
100
AcDbCircle
 10
-75.22810030043077
 20
167.5480981801099
 30
0.0
 40
3.749975256017737
100
AcDbArc
 50
270.0
 51
90.0
  0
ARC
  5
17F
330
1F
100
AcDbEntity
  8
0-0
  6
Continuous
 62
     3
370
    13
100
AcDbCircle
 10
-91.7281547371917
 20
167.5479497162163
 30
0.0
 40
3.749975256017737
100
AcDbArc
 50
90.0
 51
270.0
  0
ARC
  5
180
330
1F
100
AcDbEntity
  8
0-0
  6
Continuous
 62
     3
370
    13
100
AcDbCircle
 10
-60.22812504441294
 20
156.0480849833195
 30
0.0
 40
3.749975545986279
100
AcDbArc
 50
270.0
 51
90.0
  0
ARC
  5
181
330
1F
100
AcDbEntity
  8
0-0
  6
Continuous
 62
     3
370
    13
100
AcDbCircle
 10
-76.72817948117405
 20
156.0479365194259
 30
0.0
 40
3.749975256017737
100
AcDbArc
 50
90.0
 51
270.0
  0
ARC
  5
182
330
1F
100
AcDbEntity
  8
0-0
  6
Continuous
 62
     3
370
    13
100
AcDbCircle
 10
-45.22807555644842
 20
143.5481674632602
 30
0.0
 40
3.749975256017737
100
AcDbArc
 50
270.0
 51
90.0
  0
ARC
  5
183
330
1F
100
AcDbEntity
  8
0-0
  6
Continuous
 62
     3
370
    13
100
AcDbCircle
 10
-61.72812999320952
 20
143.5480189993666
 30
0.0
 40
3.749975256017737
100
AcDbArc
 50
90.0
 51
270.0
  0
ARC
  5
184
330
1F
100
AcDbEntity
  8
0-0
  6
Continuous
 62
     3
370
    13
100
AcDbCircle
 10
-60.22812504441294
 20
180.048015700169
 30
0.0
 40
3.749975545986279
100
AcDbArc
 50
270.0
 51
90.0
  0
ARC
  5
185
330
1F
100
AcDbEntity
  8
0-0
  6
Continuous
 62
     3
370
    13
100
AcDbCircle
 10
-76.72817948117405
 20
180.0478672362754
 30
0.0
 40
3.749975256017737
100
AcDbArc
 50
90.0
 51
270.0
  0
ARC
  5
186
330
1F
100
AcDbEntity
  8
0-0
  6
Continuous
 62
     3
370
    13
100
AcDbCircle
 10
-45.22807555644842
 20
167.5480981801099
 30
0.0
 40
3.749975256017737
100
AcDbArc
 50
270.0
 51
90.0
  0
ARC
  5
187
330
1F
100
AcDbEntity
  8
0-0
  6
Continuous
 62
     3
370
    13
100
AcDbCircle
 10
-61.72812999320952
 20
167.5479497162163
 30
0.0
 40
3.749975256017737
100
AcDbArc
 50
90.0
 51
270.0
  0
ARC
  5
188
330
1F
100
AcDbEntity
  8
0-0
  6
Continuous
 62
     3
370
    13
100
AcDbCircle
 10
-30.22817453237748
 20
156.0480849833195
 30
0.0
 40
3.749975545986279
100
AcDbArc
 50
270.0
 51
90.0
  0
ARC
  5
189
330
1F
100
AcDbEntity
  8
0-0
  6
Continuous
 62
     3
370
    13
100
AcDbCircle
 10
-46.7283032010853
 20
156.0479365194259
 30
0.0
 40
3.749975256017737
100
AcDbArc
 50
90.0
 51
270.0
  0
ARC
  5
18A
330
1F
100
AcDbEntity
  8
0-0
  6
Continuous
 62
     3
370
    13
100
AcDbCircle
 10
-15.22812504441294
 20
143.5481674632602
 30
0.0
 40
3.749975256017737
100
AcDbArc
 50
270.0
 51
90.0
  0
ARC
  5
18B
330
1F
100
AcDbEntity
  8
0-0
  6
Continuous
 62
     3
370
    13
100
AcDbCircle
 10
-31.72810524922717
 20
143.5480189993666
 30
0.0
 40
3.749975256017737
100
AcDbArc
 50
90.0
 51
270.0
  0
ARC
  5
18C
330
1F
100
AcDbEntity
  8
0-0
  6
Continuous
 62
     3
370
    13
100
AcDbCircle
 10
-30.22817453237748
 20
180.048015700169
 30
0.0
 40
3.749975545986279
100
AcDbArc
 50
270.0
 51
90.0
  0
ARC
  5
18D
330
1F
100
AcDbEntity
  8
0-0
  6
Continuous
 62
     3
370
    13
100
AcDbCircle
 10
-46.7283032010853
 20
180.0478672362754
 30
0.0
 40
3.749975256017737
100
AcDbArc
 50
90.0
 51
270.0
  0
ARC
  5
18E
330
1F
100
AcDbEntity
  8
0-0
  6
Continuous
 62
     3
370
    13
100
AcDbCircle
 10
-15.22812504441294
 20
167.5480981801099
 30
0.0
 40
3.749975256017737
100
AcDbArc
 50
270.0
 51
90.0
  0
ARC
  5
18F
330
1F
100
AcDbEntity
  8
0-0
  6
Continuous
 62
     3
370
    13
100
AcDbCircle
 10
-31.72810524922717
 20
167.5479497162163
 30
0.0
 40
3.749975256017737
100
AcDbArc
 50
90.0
 51
270.0
  0
ARC
  5
190
330
1F
100
AcDbEntity
  8
0-0
  6
Continuous
 62
     3
370
    13
100
AcDbCircle
 10
-0.2282240203420072
 20
156.0480849833195
 30
0.0
 40
3.749975545986279
100
AcDbArc
 50
270.0
 51
90.0
  0
ARC
  5
191
330
1F
100
AcDbEntity
  8
0-0
  6
Continuous
 62
     3
370
    13
100
AcDbCircle
 10
-16.72820422515623
 20
156.0479365194259
 30
0.0
 40
3.749975256017737
100
AcDbArc
 50
90.0
 51
270.0
  0
ARC
  5
192
330
1F
100
AcDbEntity
  8
0-0
  6
Continuous
 62
     3
370
    13
100
AcDbCircle
 10
14.77197393151612
 20
143.5481674632602
 30
0.0
 40
3.749975256017737
100
AcDbArc
 50
270.0
 51
90.0
  0
ARC
  5
193
330
1F
100
AcDbEntity
  8
0-0
  6
Continuous
 62
     3
370
    13
100
AcDbCircle
 10
-1.728154737191696
 20
143.5480189993666
 30
0.0
 40
3.749975256017737
100
AcDbArc
 50
90.0
 51
270.0
  0
ARC
  5
194
330
1F
100
AcDbEntity
  8
0-0
  6
Continuous
 62
     3
370
    13
100
AcDbCircle
 10
-0.2282240203420072
 20
180.048015700169
 30
0.0
 40
3.749975545986279
100
AcDbArc
 50
270.0
 51
90.0
  0
ARC
  5
195
330
1F
100
AcDbEntity
  8
0-0
  6
Continuous
 62
     3
370
    13
100
AcDbCircle
 10
-16.72820422515623
 20
180.0478672362754
 30
0.0
 40
3.749975256017737
100
AcDbArc
 50
90.0
 51
270.0
  0
ARC
  5
196
330
1F
100
AcDbEntity
  8
0-0
  6
Continuous
 62
     3
370
    13
100
AcDbCircle
 10
14.77197393151612
 20
167.5480981801099
 30
0.0
 40
3.749975256017737
100
AcDbArc
 50
270.0
 51
90.0
  0
ARC
  5
197
330
1F
100
AcDbEntity
  8
0-0
  6
Continuous
 62
     3
370
    13
100
AcDbCircle
 10
-1.728154737191696
 20
167.5479497162163
 30
0.0
 40
3.749975256017737
100
AcDbArc
 50
90.0
 51
270.0
  0
ARC
  5
198
330
1F
100
AcDbEntity
  8
0-0
  6
Continuous
 62
     3
370
    13
100
AcDbCircle
 10
29.77187495558706
 20
156.0480849833195
 30
0.0
 40
3.749975545986279
100
AcDbArc
 50
270.0
 51
90.0
  0
ARC
  5
199
330
1F
100
AcDbEntity
  8
0-0
  6
Continuous
 62
     3
370
    13
100
AcDbCircle
 10
13.27189475077284
 20
156.0479365194259
 30
0.0
 40
3.749975256017737
100
AcDbArc
 50
90.0
 51
270.0
  0
ARC
  5
19A
330
1F
100
AcDbEntity
  8
0-0
  6
Continuous
 62
     3
370
    13
100
AcDbCircle
 10
13.27189475077284
 20
180.0478672362754
 30
0.0
 40
3.749975256017737
100
AcDbArc
 50
90.0
 51
270.0
  0
ARC
  5
19B
330
1F
100
AcDbEntity
  8
0-0
  6
Continuous
 62
     3
370
    13
100
AcDbCircle
 10
28.27179577484378
 20
167.5479497162163
 30
0.0
 40
3.749975256017737
100
AcDbArc
 50
90.0
 51
270.0
  0
ARC
  5
19C
330
1F
100
AcDbEntity
  8
0-0
  6
Continuous
 62
     3
370
    13
100
AcDbCircle
 10
451.8872379992949
 20
152.3149603792231
 30
0.0
 40
18.00000023197483
100
AcDbArc
 50
251.5648345947266
 51
326.3016815185547
  0
ARC
  5
19D
330
1F
100
AcDbEntity
  8
0-0
  6
Continuous
 62
     3
370
    13
100
AcDbCircle
 10
457.7380515814318
 20
168.2979893065879
 30
0.0
 40
21.99999912365063
100
AcDbArc
 50
116.4956512451172
 51
132.3847351074219
  0
ARC
  5
19E
330
1F
100
AcDbEntity
  8
0-0
  6
Continuous
 62
     3
370
    13
100
AcDbCircle
 10
457.7380515814318
 20
168.2979893065879
 30
0.0
 40
21.99999912365063
100
AcDbArc
 50
326.3014678955078
 51
116.4953460693359
  0
ARC
  5
19F
330
1F
100
AcDbEntity
  8
0-0
  6
Continuous
 62
     3
370
    13
100
AcDbCircle
 10
457.7380515814318
 20
168.2979893065879
 30
0.0
 40
21.99999912365063
100
AcDbArc
 50
227.6152648925782
 51
236.9442291259766
  0
ARC
  5
1A0
330
1F
100
AcDbEntity
  8
0-0
  6
Continuous
 62
     3
370
    13
100
AcDbCircle
 10
457.7380515814318
 20
168.2979893065879
 30
0.0
 40
21.99999912365063
100
AcDbArc
 50
136.6582183837891
 51
223.3417816162109
  0
ARC
  5
1A1
330
1F
100
AcDbEntity
  8
0-0
  6
Continuous
 62
     3
370
    13
100
AcDbCircle
 10
-518.4782636107137
 20
-196.566875558277
 30
0.0
 40
21.99999912365063
100
AcDbArc
 50
90.0
 51
270.0
  0
ARC
  5
1A2
330
1F
100
AcDbEntity
  8
0-0
  6
Continuous
 62
     3
370
    13
100
AcDbCircle
 10
81.52193434114439
 20
-196.566875558277
 30
0.0
 40
21.99999912365063
100
AcDbArc
 50
270.0
 51
90.0
  0
ARC
  5
1A3
330
1F
100
AcDbEntity
  8
0-0
  6
Continuous
 62
     3
370
    13
100
AcDbCircle
 10
-454.478151437994
 20
162.2979695114021
 30
0.0
 40
23.99993071684966
100
AcDbArc
 50
90.0
 51
270.0
  0
ARC
  5
1A4
330
1F
100
AcDbEntity
  8
0-0
  6
Continuous
 62
     3
370
    13
100
AcDbCircle
 10
-460.47817123318
 20
162.2979695114021
 30
0.0
 40
28.00000036084974
100
AcDbArc
 50
214.8497924804688
 51
270.0
  0
ARC
  5
1A5
330
1F
100
AcDbEntity
  8
0-0
  6
Continuous
 62
     3
370
    13
100
AcDbCircle
 10
-466.7282042251564
 20
180.0480899321159
 30
0.0
 40
3.749975545986279
100
AcDbArc
 50
177.8501892089844
 51
270.0
  0
ARC
  5
1A6
330
1F
100
AcDbEntity
  8
0-0
  6
Continuous
 62
     3
370
    13
100
AcDbCircle
 10
-465.2281250444131
 20
143.5480189993666
 30
0.0
 40
3.749975256017737
100
AcDbArc
 50
294.3763732910156
 51
89.99999999999997
  0
ARC
  5
1A7
330
1F
100
AcDbEntity
  8
0-0
  6
Continuous
 62
     3
370
    13
100
AcDbCircle
 10
17.52182216842487
 20
162.2979695114021
 30
0.0
 40
23.99993071684966
100
AcDbArc
 50
270.0
 51
90.0
  0
ARC
  5
1A8
330
1F
100
AcDbEntity
  8
0-0
  6
Continuous
 62
     3
370
    13
100
AcDbCircle
 10
23.52184196361065
 20
162.2979695114021
 30
0.0
 40
24.00000030929978
100
AcDbArc
 50
270.0
 51
90.0
  0
ARC
  5
1A9
330
1F
100
AcDbEntity
  8
0-0
  6
Continuous
 62
     3
370
    13
100
AcDbCircle
 10
23.52184196361065
 20
162.2979695114021
 30
0.0
 40
28.00000036084974
100
AcDbArc
 50
270.0
 51
325.1502838134766
  0
ARC
  5
1AA
330
1F
100
AcDbEntity
  8
0-0
  6
Continuous
 62
     3
370
    13
100
AcDbCircle
 10
28.27179577484378
 20
143.5480189993666
 30
0.0
 40
3.749975256017737
100
AcDbArc
 50
90.0
 51
245.6236267089843
  0
ARC
  5
1AB
330
1F
100
AcDbEntity
  8
0-0
  6
Continuous
 62
     3
370
    13
100
AcDbCircle
 10
29.77187495558706
 20
180.0480899321159
 30
0.0
 40
3.749975545986279
100
AcDbArc
 50
270.0
 51
2.149765014648445
  0
LINE
  5
1AC
330
1F
100
AcDbEntity
  8
0-4
  6
Continuous
 62
     7
370
    13
100
AcDbLine
 10
203.2016946062558
 20
134.2979761097974
 30
0.0
 11
203.2016946062558
 21
190.297962913007
 31
0.0
  0
LINE
  5
1AD
330
1F
100
AcDbEntity
  8
0-4
  6
Continuous
 62
     7
370
    13
100
AcDbLine
 10
203.2016946062558
 20
134.2979761097974
 30
0.0
 11
199.9385398007545
 21
159.0840976441427
 31
0.0
  0
LINE
  5
1AE
330
1F
100
AcDbEntity
  8
0-4
  6
Continuous
 62
     7
370
    13
100
AcDbLine
 10
203.2016946062558
 20
134.2979761097974
 30
0.0
 11
206.464849411757
 21
159.0840976441427
 31
0.0
  0
LINE
  5
1AF
330
1F
100
AcDbEntity
  8
0-4
  6
Continuous
 62
     7
370
    13
100
AcDbLine
 10
203.2016946062558
 20
190.297962913007
 30
0.0
 11
199.9385398007545
 21
165.5118413786617
 31
0.0
  0
LINE
  5
1B0
330
1F
100
AcDbEntity
  8
0-4
  6
Continuous
 62
     7
370
    13
100
AcDbLine
 10
203.2016946062558
 20
190.297962913007
 30
0.0
 11
206.464849411757
 21
165.5118413786617
 31
0.0
  0
LINE
  5
1B1
330
1F
100
AcDbEntity
  8
0-4
  6
Continuous
 62
     7
370
    13
100
AcDbLine
 10
206.2016946062558
 20
134.2979761097974
 30
0.0
 11
43.52184196361065
 21
134.2979761097974
 31
0.0
  0
LINE
  5
1B2
330
1F
100
AcDbEntity
  8
0-4
  6
Continuous
 62
     7
370
    13
100
AcDbLine
 10
206.2016946062558
 20
190.297962913007
 30
0.0
 11
73.52194093953969
 21
190.297962913007
 31
0.0
  0
TEXT
  5
1B3
330
1F
100
AcDbEntity
  8
0-4
  6
Continuous
 62
     2
370
   211
100
AcDbText
 10
187.5616946062557
 20
141.0479695114022
 30
0.0
 40
30.48
  1
28
 50
90.0
 41
1.0625
  7
ＭＳ ゴシック
100
AcDbText
  0
LINE
  5
1B4
330
1F
100
AcDbEntity
  8
0-4
  6
Continuous
 62
     7
370
    13
100
AcDbLine
 10
203.2016946062558
 20
468.2981277182388
 30
0.0
 11
203.2016946062558
 21
768.2980387945526
 31
0.0
  0
LINE
  5
1B5
330
1F
100
AcDbEntity
  8
0-4
  6
Continuous
 62
     7
370
    13
100
AcDbLine
 10
203.2016946062558
 20
468.2981277182388
 30
0.0
 11
199.9385398007545
 21
493.0842492525841
 31
0.0
  0
LINE
  5
1B6
330
1F
100
AcDbEntity
  8
0-4
  6
Continuous
 62
     7
370
    13
100
AcDbLine
 10
203.2016946062558
 20
468.2981277182388
 30
0.0
 11
206.464849411757
 21
493.0842492525841
 31
0.0
  0
LINE
  5
1B7
330
1F
100
AcDbEntity
  8
0-4
  6
Continuous
 62
     7
370
    13
100
AcDbLine
 10
203.2016946062558
 20
768.2980387945526
 30
0.0
 11
199.9385398007545
 21
743.5119172602073
 31
0.0
  0
LINE
  5
1B8
330
1F
100
AcDbEntity
  8
0-4
  6
Continuous
 62
     7
370
    13
100
AcDbLine
 10
203.2016946062558
 20
768.2980387945526
 30
0.0
 11
206.4648494117571
 21
743.5119172602073
 31
0.0
  0
LINE
  5
1B9
330
1F
100
AcDbEntity
  8
0-4
  6
Continuous
 62
     7
370
    13
100
AcDbLine
 10
206.2016946062558
 20
468.2981277182388
 30
0.0
 11
101.5219343411444
 21
468.2981277182388
 31
0.0
  0
TEXT
  5
1BA
330
1F
100
AcDbEntity
  8
0-4
  6
Continuous
 62
     2
370
   211
100
AcDbText
 10
187.5616946062558
 20
585.7980832563957
 30
0.0
 40
30.48
  1
150
 50
90.0
 41
1.083333333333332
  7
ＭＳ ゴシック
100
AcDbText
  0
LINE
  5
1BB
330
1F
100
AcDbEntity
  8
0-4
  6
Continuous
 62
     7
370
    13
100
AcDbLine
 10
140.8665758015088
 20
168.2979893065879
 30
0.0
 11
79.22423148043652
 21
168.2979893065879
 31
0.0
  0
LINE
  5
1BC
330
1F
100
AcDbEntity
  8
0-0
  6
Continuous
 62
     3
370
    13
100
AcDbLine
 10
23.57963844104012
 20
186.2979002282518
 30
0.0
 11
-460.5359677106094
 21
186.2979002282518
 31
0.0
  0
LINE
  5
1BD
330
1F
100
AcDbEntity
  8
0-0
  6
Continuous
 62
     3
370
    13
100
AcDbLine
 10
23.57963844105472
 20
138.2980387945524
 30
0.0
 11
-460.535967710624
 21
138.2980387945524
 31
0.0
  0
LINE
  5
1BE
330
1F
100
AcDbEntity
  8
0-4
  6
Continuous
 62
     7
370
    13
100
AcDbLine
 10
-484.4781715424798
 20
22.3057464362079
 30
0.0
 11
47.52184227291043
 21
22.3057464362079
 31
0.0
  0
LINE
  5
1BF
330
1F
100
AcDbEntity
  8
0-4
  6
Continuous
 62
     7
370
    13
100
AcDbLine
 10
-484.4781715424798
 20
22.3057464362079
 30
0.0
 11
-459.6920500081345
 21
25.56890124170919
 31
0.0
  0
LINE
  5
1C0
330
1F
100
AcDbEntity
  8
0-4
  6
Continuous
 62
     7
370
    13
100
AcDbLine
 10
-484.4781715424798
 20
22.3057464362079
 30
0.0
 11
-459.6920500081345
 21
19.04259163070661
 31
0.0
  0
LINE
  5
1C1
330
1F
100
AcDbEntity
  8
0-4
  6
Continuous
 62
     7
370
    13
100
AcDbLine
 10
47.52184227291043
 20
22.3057464362079
 30
0.0
 11
22.73572073856517
 21
25.56890124170919
 31
0.0
  0
LINE
  5
1C2
330
1F
100
AcDbEntity
  8
0-4
  6
Continuous
 62
     7
370
    13
100
AcDbLine
 10
47.52184227291043
 20
22.3057464362079
 30
0.0
 11
22.73572073856517
 21
19.04259163070661
 31
0.0
  0
LINE
  5
1C3
330
1F
100
AcDbEntity
  8
0-4
  6
Continuous
 62
     7
370
    13
100
AcDbLine
 10
-484.4781715424798
 20
19.3057464362079
 30
0.0
 11
-484.4781715424798
 21
142.2979695114021
 31
0.0
  0
LINE
  5
1C4
330
1F
100
AcDbEntity
  8
0-4
  6
Continuous
 62
     7
370
    13
100
AcDbLine
 10
47.52184227291043
 20
19.3057464362079
 30
0.0
 11
47.52184227291043
 21
142.2979695114021
 31
0.0
  0
TEXT
  5
1C5
330
1F
100
AcDbEntity
  8
0-4
  6
Continuous
 62
     2
370
   211
100
AcDbText
 10
-250.9781646347847
 20
37.94574643620791
 30
0.0
 40
30.48
  1
266
 41
1.083333333333333
  7
ＭＳ ゴシック
100
AcDbText
  0
LINE
  5
1C6
330
1F
100
AcDbEntity
  8
0-4
  6
Continuous
 62
     7
370
    13
100
AcDbLine
 10
-518.4782636107137
 20
-69.99583054255217
 30
0.0
 11
81.52178935687331
 21
-69.99583054255217
 31
0.0
  0
LINE
  5
1C7
330
1F
100
AcDbEntity
  8
0-4
  6
Continuous
 62
     7
370
    13
100
AcDbLine
 10
-518.4782636107137
 20
-69.99583054255217
 30
0.0
 11
-493.6921420763685
 21
-66.73267573705088
 31
0.0
  0
LINE
  5
1C8
330
1F
100
AcDbEntity
  8
0-4
  6
Continuous
 62
     7
370
    13
100
AcDbLine
 10
-518.4782636107137
 20
-69.99583054255217
 30
0.0
 11
-493.6921420763685
 21
-73.25898534805346
 31
0.0
  0
LINE
  5
1C9
330
1F
100
AcDbEntity
  8
0-4
  6
Continuous
 62
     7
370
    13
100
AcDbLine
 10
81.52178935687331
 20
-69.99583054255217
 30
0.0
 11
56.73566782252806
 21
-66.73267573705088
 31
0.0
  0
LINE
  5
1CA
330
1F
100
AcDbEntity
  8
0-4
  6
Continuous
 62
     7
370
    13
100
AcDbLine
 10
81.52178935687331
 20
-69.99583054255217
 30
0.0
 11
56.73566782252806
 21
-73.25898534805346
 31
0.0
  0
LINE
  5
1CB
330
1F
100
AcDbEntity
  8
0-4
  6
Continuous
 62
     7
370
    13
100
AcDbLine
 10
-518.4782636107137
 20
-72.99583054255217
 30
0.0
 11
-518.4782636107137
 21
162.2979860073904
 31
0.0
  0
LINE
  5
1CC
330
1F
100
AcDbEntity
  8
0-4
  6
Continuous
 62
     7
370
    13
100
AcDbLine
 10
81.52178935687331
 20
-72.99583054255217
 30
0.0
 11
81.52178935687331
 21
162.2979860073904
 31
0.0
  0
TEXT
  5
1CD
330
1F
100
AcDbEntity
  8
0-4
  6
Continuous
 62
     2
370
   211
100
AcDbText
 10
-250.9782371269202
 20
-54.35583054255217
 30
0.0
 40
30.48
  1
300
 41
1.083333333333333
  7
ＭＳ ゴシック
100
AcDbText
  0
LINE
  5
1CE
330
1F
100
AcDbEntity
  8
0-4
  6
Continuous
 62
     7
370
    13
100
AcDbLine
 10
103.5219079475633
 20
342.6579257982444
 30
0.0
 11
128.3080294819085
 21
345.9210806037457
 31
0.0
  0
LINE
  5
1CF
330
1F
100
AcDbEntity
  8
0-4
  6
Continuous
 62
     7
370
    13
100
AcDbLine
 10
103.5219079475633
 20
342.6579257982444
 30
0.0
 11
128.3080294819085
 21
339.3947709927431
 31
0.0
  0
LINE
  5
1D0
330
1F
100
AcDbEntity
  8
0-4
  6
Continuous
 62
     7
370
    13
100
AcDbLine
 10
59.5219607347255
 20
342.6579257982444
 30
0.0
 11
34.73583920038023
 21
345.9210806037457
 31
0.0
  0
LINE
  5
1D1
330
1F
100
AcDbEntity
  8
0-4
  6
Continuous
 62
     7
370
    13
100
AcDbLine
 10
59.5219607347255
 20
342.6579257982444
 30
0.0
 11
34.73583920038023
 21
339.3947709927431
 31
0.0
  0
LINE
  5
1D2
330
1F
100
AcDbEntity
  8
0-4
  6
Continuous
 62
     7
370
    13
100
AcDbLine
 10
146.2509527149489
 20
342.6579257982444
 30
0.0
 11
-10.09859612058118
 21
342.6579257982444
 31
0.0
  0
TEXT
  5
1D3
330
1F
100
AcDbEntity
  8
0-4
  6
Continuous
 62
     2
370
   211
100
AcDbText
 10
3.000925972073141
 20
360.2785153327847
 30
0.0
 40
30.48
  1
22
 41
1.0625
  7
ＭＳ ゴシック
100
AcDbText
  0
LINE
  5
1D4
330
1F
100
AcDbEntity
  8
0-4
  6
Continuous
 62
     7
370
    13
100
AcDbLine
 10
467.7379855974789
 20
582.0618288204603
 30
0.0
 11
492.5241071318242
 21
585.3249836259615
 31
0.0
  0
LINE
  5
1D5
330
1F
100
AcDbEntity
  8
0-4
  6
Continuous
 62
     7
370
    13
100
AcDbLine
 10
467.7379855974789
 20
582.0618288204603
 30
0.0
 11
492.5241071318242
 21
578.7986740149589
 31
0.0
  0
LINE
  5
1D6
330
1F
100
AcDbEntity
  8
0-4
  6
Continuous
 62
     7
370
    13
100
AcDbLine
 10
447.7381175653843
 20
582.0618288204603
 30
0.0
 11
422.951996031039
 21
585.3249836259615
 31
0.0
  0
LINE
  5
1D7
330
1F
100
AcDbEntity
  8
0-4
  6
Continuous
 62
     7
370
    13
100
AcDbLine
 10
447.7381175653843
 20
582.0618288204603
 30
0.0
 11
422.951996031039
 21
578.7986740149589
 31
0.0
  0
TEXT
  5
1D8
330
1F
100
AcDbEntity
  8
0-4
  6
Continuous
 62
     2
370
   211
100
AcDbText
 10
393.6125302763284
 20
597.5057163444426
 30
0.0
 40
30.48
  1
10
 41
1.0625
  7
ＭＳ ゴシック
100
AcDbText
  0
LINE
  5
1D9
330
1F
100
AcDbEntity
  8
0-4
  6
Continuous
 62
     7
370
    13
100
AcDbLine
 10
504.2741928482753
 20
582.0618288204603
 30
0.0
 11
388.172481747389
 21
582.0618288204603
 31
0.0
  0
LINE
  5
1DA
330
1F
100
AcDbEntity
  8
0-4
  6
Continuous
 62
     7
370
    13
100
AcDbLine
 10
281.9413456724744
 20
168.2979893065879
 30
0.0
 11
281.9413456724745
 21
768.2980387945526
 31
0.0
  0
LINE
  5
1DB
330
1F
100
AcDbEntity
  8
0-4
  6
Continuous
 62
     7
370
    13
100
AcDbLine
 10
281.9413456724744
 20
168.2979893065879
 30
0.0
 11
278.6781908669732
 21
193.0841108409331
 31
0.0
  0
LINE
  5
1DC
330
1F
100
AcDbEntity
  8
0-4
  6
Continuous
 62
     7
370
    13
100
AcDbLine
 10
281.9413456724744
 20
168.2979893065879
 30
0.0
 11
285.2045004779757
 21
193.0841108409331
 31
0.0
  0
LINE
  5
1DD
330
1F
100
AcDbEntity
  8
0-4
  6
Continuous
 62
     7
370
    13
100
AcDbLine
 10
281.9413456724745
 20
768.2980387945526
 30
0.0
 11
278.6781908669732
 21
743.5119172602073
 31
0.0
  0
LINE
  5
1DE
330
1F
100
AcDbEntity
  8
0-4
  6
Continuous
 62
     7
370
    13
100
AcDbLine
 10
281.9413456724745
 20
768.2980387945526
 30
0.0
 11
285.2045004779758
 21
743.5119172602073
 31
0.0
  0
TEXT
  5
1DF
330
1F
100
AcDbEntity
  8
0-4
  6
Continuous
 62
     2
370
   211
100
AcDbText
 10
266.3013456724746
 20
435.7980140505703
 30
0.0
 40
30.48
  1
300
 50
90.0
 41
1.083333333333333
  7
ＭＳ ゴシック
100
AcDbText
  0
LINE
  5
1E0
330
1F
100
AcDbEntity
  8
0-4
  6
Continuous
 62
     7
370
    13
100
AcDbLine
 10
285.2045004779758
 20
768.2980387945526
 30
0.0
 11
107.5408290261732
 21
768.2980387945526
 31
0.0
  0
LINE
  5
1E1
330
1F
100
AcDbEntity
  8
0-4
  6
Continuous
 62
     7
370
    13
100
AcDbLine
 10
285.2045004779757
 20
168.2979893065879
 30
0.0
 11
224.4005938067002
 21
168.2979893065879
 31
0.0
  0
LINE
  5
1E2
330
1F
100
AcDbEntity
  8
0-5
  6
Continuous
 62
     7
370
    13
100
AcDbLine
 10
23.52184196361065
 20
138.2979692021023
 30
0.0
 11
32.6532633987415
 21
126.3976690977337
 31
0.0
  0
LINE
  5
1E3
330
1F
100
AcDbEntity
  8
0-5
  6
Continuous
 62
     7
370
    13
100
AcDbLine
 10
23.52184196361065
 20
138.2979692021023
 30
0.0
 11
29.26209344908699
 21
124.439776214433
 31
0.0
  0
LINE
  5
1E4
330
1F
100
AcDbEntity
  8
0-5
  6
Continuous
 62
     7
370
    13
100
AcDbLine
 10
23.52184196361065
 20
138.2979692021023
 30
0.0
 11
150.1359610814247
 21
-81.00411806552955
 31
0.0
  0
TEXT
  5
1E5
330
1F
100
AcDbEntity
  8
0-5
  6
Continuous
 62
     7
370
    13
100
AcDbText
 10
161.9922135686058
 20
-69.91162662326217
 30
0.0
 40
22.86
  1
ＦＣＤ５００，樹脂系塗装
 41
1.152777777777778
  7
ＭＳ ゴシック
100
AcDbText
  0
LINE
  5
1E6
330
1F
100
AcDbEntity
  8
0-5
  6
Continuous
 62
     7
370
    13
100
AcDbLine
 10
150.1359610814247
 20
-81.00411806552955
 30
0.0
 11
584.3094685582794
 21
-81.00411806552955
 31
0.0
  0
TEXT
  5
1E7
330
1F
100
AcDbEntity
  8
F-4
  6
Continuous
 62
     2
370
    13
100
AcDbText
 10
24.52223852457131
 20
-1135.105056518637
 30
0.0
 40
30.48
  1
足掛金物　　　　　ＦＧ
 41
1.113636363636364
  7
ＭＳ ゴシック
100
AcDbText
  0
ENDSEC
  0
SECTION
  2
OBJECTS
  0
DICTIONARY
  5
C
330
0
100
AcDbDictionary
281
     1
  3
ACAD_GROUP
350
D
  3
ACAD_LAYOUT
350
1A
  3
ACAD_MLEADERSTYLE
350
1E9
  3
ACAD_MLINESTYLE
350
17
  3
ACAD_PLOTSETTINGS
350
19
  3
ACAD_PLOTSTYLENAME
350
E
  3
ACAD_TABLESTYLE
350
1E8
  3
ACAD_VISUALSTYLE
350
2A
  0
DICTIONARY
  5
D
102
{ACAD_REACTORS
330
C
102
}
330
C
100
AcDbDictionary
281
     1
  0
DICTIONARY
  5
1A
102
{ACAD_REACTORS
330
C
102
}
330
C
100
AcDbDictionary
281
     1
  3
Layout1
350
1E
  3
Layout2
350
26
  3
Model
350
22
  0
DICTIONARY
  5
1E9
102
{ACAD_REACTORS
330
C
102
}
330
C
100
AcDbDictionary
281
     1
  0
DICTIONARY
  5
17
102
{ACAD_REACTORS
330
C
102
}
330
C
100
AcDbDictionary
281
     1
  3
Standard
350
18
  0
DICTIONARY
  5
19
102
{ACAD_REACTORS
330
C
102
}
330
C
100
AcDbDictionary
281
     1
  0
ACDBDICTIONARYWDFLT
  5
E
102
{ACAD_REACTORS
330
C
102
}
330
C
100
AcDbDictionary
281
     1
  3
Normal
350
F
100
AcDbDictionaryWithDefault
340
F
  0
DICTIONARY
  5
1E8
102
{ACAD_REACTORS
330
C
102
}
330
C
100
AcDbDictionary
281
     1
  0
DICTIONARY
  5
2A
102
{ACAD_REACTORS
330
C
102
}
330
C
100
AcDbDictionary
281
     1
  3
2dWireframe
350
2F
  3
3D Hidden
350
31
  3
3dWireframe
350
30
  3
Basic
350
32
  3
Brighten
350
36
  3
ColorChange
350
3A
  3
Conceptual
350
34
  3
Dim
350
35
  3
Facepattern
350
39
  3
Flat
350
2B
  3
FlatWithEdges
350
2C
  3
Gouraud
350
2D
  3
GouraudWithEdges
350
2E
  3
Linepattern
350
38
  3
Realistic
350
33
  3
Thicken
350
37
  0
LAYOUT
  5
1E
102
{ACAD_REACTORS
330
1A
102
}
330
1A
100
AcDbPlotSettings
  1

  2
none_device
  4

  6

 40
0.0
 41
0.0
 42
0.0
 43
0.0
 44
0.0
 45
0.0
 46
0.0
 47
0.0
 48
0.0
 49
0.0
140
0.0
141
0.0
142
1.0
143
1.0
 70
   688
 72
     0
 73
     0
 74
     5
  7

 75
    16
 76
     0
 77
     5
 78
   300
147
1.0
148
0.0
149
0.0
100
AcDbLayout
  1
Layout1
 70
     1
 71
     1
 10
0.0
 20
0.0
 11
420.0
 21
297.0
 12
0.0
 22
0.0
 32
0.0
 14
1.000000000000000E+20
 24
1.000000000000000E+20
 34
1.000000000000000E+20
 15
-1.000000000000000E+20
 25
-1.000000000000000E+20
 35
-1.000000000000000E+20
146
0.0
 13
0.0
 23
0.0
 33
0.0
 16
1.0
 26
0.0
 36
0.0
 17
0.0
 27
1.0
 37
0.0
 76
     0
330
1B
  0
LAYOUT
  5
26
102
{ACAD_REACTORS
330
1A
102
}
330
1A
100
AcDbPlotSettings
  1

  2
none_device
  4

  6

 40
0.0
 41
0.0
 42
0.0
 43
0.0
 44
0.0
 45
0.0
 46
0.0
 47
0.0
 48
0.0
 49
0.0
140
0.0
141
0.0
142
1.0
143
1.0
 70
   688
 72
     0
 73
     0
 74
     5
  7

 75
    16
 76
     0
 77
     5
 78
   300
147
1.0
148
0.0
149
0.0
100
AcDbLayout
  1
Layout2
 70
     1
 71
     2
 10
0.0
 20
0.0
 11
0.0
 21
0.0
 12
0.0
 22
0.0
 32
0.0
 14
0.0
 24
0.0
 34
0.0
 15
0.0
 25
0.0
 35
0.0
146
0.0
 13
0.0
 23
0.0
 33
0.0
 16
1.0
 26
0.0
 36
0.0
 17
0.0
 27
1.0
 37
0.0
 76
     0
330
23
  0
LAYOUT
  5
22
102
{ACAD_REACTORS
330
1A
102
}
330
1A
100
AcDbPlotSettings
  1

  2
none_device
  4

  6

 40
0.0
 41
0.0
 42
0.0
 43
0.0
 44
0.0
 45
0.0
 46
0.0
 47
0.0
 48
0.0
 49
0.0
140
0.0
141
0.0
142
1.0
143
1.0
 70
  1712
 72
     0
 73
     0
 74
     0
  7

 75
     0
 76
     0
 77
     5
 78
   300
147
1.0
148
0.0
149
0.0
100
AcDbLayout
  1
Model
 70
     1
 71
     0
 10
-2100.0
 20
-1485.0
 11
2100.0
 21
1485.0
 12
0.0
 22
0.0
 32
0.0
 14
-2100.0
 24
-1485.0
 34
0.0
 15
2100.0
 25
1485.0
 35
0.0
146
0.0
 13
0.0
 23
0.0
 33
0.0
 16
1.0
 26
0.0
 36
0.0
 17
0.0
 27
1.0
 37
0.0
 76
     0
330
1F
331
29
  0
MLINESTYLE
  5
18
102
{ACAD_REACTORS
330
17
102
}
330
17
100
AcDbMlineStyle
  2
Standard
 70
     0
  3

 62
   256
 51
90.0
 52
90.0
 71
     2
 49
0.5
 62
   256
  6
BYLAYER
 49
-0.5
 62
   256
  6
BYLAYER
  0
ACDBPLACEHOLDER
  5
F
102
{ACAD_REACTORS
330
E
102
}
330
E
  0
VISUALSTYLE
  5
2F
102
{ACAD_REACTORS
330
2A
102
}
330
2A
100
AcDbVisualStyle
  2
2dWireframe
 70
     4
 71
     0
 72
     2
 73
     0
 90
        0
 40
-0.6
 41
-30.0
 62
     5
 63
     7
421
 16777215
 74
     1
 91
        4
 64
     7
 65
   257
 75
     1
175
     1
 42
1.0
 92
        0
 66
   257
 43
1.0
 76
     1
 77
     6
 78
     2
 67
     7
 79
     5
170
     0
171
     0
290
     0
174
     0
 93
        1
 44
0.0
173
     0
291
     0
 45
0.0
1001
ACAD
1000
AcDbSavedByObjectVersion
1070
     0
  0
VISUALSTYLE
  5
31
102
{ACAD_REACTORS
330
2A
102
}
330
2A
100
AcDbVisualStyle
  2
3D Hidden
 70
     6
 71
     1
 72
     2
 73
     2
 90
        0
 40
-0.6
 41
-30.0
 62
     5
 63
     7
421
 16777215
 74
     2
 91
        2
 64
     7
 65
   257
 75
     2
175
     1
 42
40.0
 92
        0
 66
   257
 43
1.0
 76
     1
 77
     6
 78
     2
 67
     7
 79
     3
170
     0
171
     0
290
     0
174
     0
 93
        1
 44
0.0
173
     0
291
     0
 45
0.0
1001
ACAD
1000
AcDbSavedByObjectVersion
1070
     0
  0
VISUALSTYLE
  5
30
102
{ACAD_REACTORS
330
2A
102
}
330
2A
100
AcDbVisualStyle
  2
3dWireframe
 70
     5
 71
     0
 72
     2
 73
     0
 90
        0
 40
-0.6
 41
-30.0
 62
     5
 63
     7
421
 16777215
 74
     1
 91
        4
 64
     7
 65
   257
 75
     1
175
     1
 42
1.0
 92
        0
 66
   257
 43
1.0
 76
     1
 77
     6
 78
     2
 67
     7
 79
     5
170
     0
171
     0
290
     0
174
     0
 93
        1
 44
0.0
173
     0
291
     0
 45
0.0
1001
ACAD
1000
AcDbSavedByObjectVersion
1070
     0
  0
VISUALSTYLE
  5
32
102
{ACAD_REACTORS
330
2A
102
}
330
2A
100
AcDbVisualStyle
  2
Basic
 70
     7
 71
     1
 72
     0
 73
     1
 90
        0
 40
-0.6
 41
-30.0
 62
     5
 63
     7
421
 16777215
 74
     0
 91
        4
 64
     7
 65
   257
 75
     1
175
     1
 42
1.0
 92
        8
 66
     7
 43
1.0
 76
     1
 77
     6
 78
     2
 67
     7
 79
     5
170
     0
171
     0
290
     0
174
     0
 93
        1
 44
0.0
173
     0
291
     1
 45
0.0
1001
ACAD
1000
AcDbSavedByObjectVersion
1070
     0
  0
VISUALSTYLE
  5
36
102
{ACAD_REACTORS
330
2A
102
}
330
2A
100
AcDbVisualStyle
  2
Brighten
 70
    12
 71
     2
 72
     2
 73
     0
 90
        0
 40
-0.6
 41
-30.0
 62
     5
 63
     7
421
 16777215
 74
     1
 91
        4
 64
     7
 65
   257
 75
     1
175
     1
 42
1.0
 92
        8
 66
     7
 43
1.0
 76
     1
 77
     6
 78
     2
 67
     7
 79
     5
170
     0
171
     0
290
     0
174
     0
 93
        1
 44
50.0
173
     0
291
     1
 45
0.0
1001
ACAD
1000
AcDbSavedByObjectVersion
1070
     0
  0
VISUALSTYLE
  5
3A
102
{ACAD_REACTORS
330
2A
102
}
330
2A
100
AcDbVisualStyle
  2
ColorChange
 70
    16
 71
     2
 72
     2
 73
     3
 90
        0
 40
-0.6
 41
-30.0
 62
     5
 63
     8
421
  8421504
 74
     1
 91
        4
 64
     7
 65
   257
 75
     1
175
     1
 42
1.0
 92
        8
 66
     8
424
  8421504
 43
1.0
 76
     1
 77
     6
 78
     2
 67
     7
 79
     5
170
     0
171
     0
290
     0
174
     0
 93
        1
 44
0.0
173
     0
291
     1
 45
0.0
1001
ACAD
1000
AcDbSavedByObjectVersion
1070
     0
  0
VISUALSTYLE
  5
34
102
{ACAD_REACTORS
330
2A
102
}
330
2A
100
AcDbVisualStyle
  2
Conceptual
 70
     9
 71
     3
 72
     2
 73
     0
 90
        0
 40
-0.6
 41
-30.0
 62
     5
 63
     7
421
 16777215
 74
     2
 91
        2
 64
     7
 65
   257
 75
     1
175
     1
 42
40.0
 92
        8
 66
     7
 43
1.0
 76
     1
 77
     6
 78
     2
 67
     7
 79
     3
170
     0
171
     0
290
     0
174
     0
 93
        1
 44
0.0
173
     0
291
     0
 45
0.0
1001
ACAD
1000
AcDbSavedByObjectVersion
1070
     0
  0
VISUALSTYLE
  5
35
102
{ACAD_REACTORS
330
2A
102
}
330
2A
100
AcDbVisualStyle
  2
Dim
 70
    11
 71
     2
 72
     2
 73
     0
 90
        0
 40
-0.6
 41
-30.0
 62
     5
 63
     7
421
 16777215
 74
     1
 91
        4
 64
     7
 65
   257
 75
     1
175
     1
 42
1.0
 92
        8
 66
     7
 43
1.0
 76
     1
 77
     6
 78
     2
 67
     7
 79
     5
170
     0
171
     0
290
     0
174
     0
 93
        1
 44
-50.0
173
     0
291
     1
 45
0.0
1001
ACAD
1000
AcDbSavedByObjectVersion
1070
     0
  0
VISUALSTYLE
  5
39
102
{ACAD_REACTORS
330
2A
102
}
330
2A
100
AcDbVisualStyle
  2
Facepattern
 70
    15
 71
     2
 72
     2
 73
     0
 90
        0
 40
-0.6
 41
-30.0
 62
     5
 63
     7
421
 16777215
 74
     1
 91
        4
 64
     7
 65
   257
 75
     1
175
     1
 42
1.0
 92
        8
 66
     7
 43
1.0
 76
     1
 77
     6
 78
     2
 67
     7
 79
     5
170
     0
171
     0
290
     0
174
     0
 93
        1
 44
0.0
173
     0
291
     1
 45
0.0
1001
ACAD
1000
AcDbSavedByObjectVersion
1070
     0
  0
VISUALSTYLE
  5
2B
102
{ACAD_REACTORS
330
2A
102
}
330
2A
100
AcDbVisualStyle
  2
Flat
 70
     0
 71
     2
 72
     1
 73
     1
 90
        2
 40
-0.6
 41
30.0
 62
     5
 63
     7
421
 16777215
 74
     0
 91
        4
 64
     7
 65
   257
 75
     1
175
     1
 42
1.0
 92
        8
 66
     7
 43
1.0
 76
     1
 77
     6
 78
     2
 67
     7
 79
     5
170
     0
171
     0
290
     0
174
     0
 93
       13
 44
0.0
173
     0
291
     1
 45
0.0
1001
ACAD
1000
AcDbSavedByObjectVersion
1070
     0
  0
VISUALSTYLE
  5
2C
102
{ACAD_REACTORS
330
2A
102
}
330
2A
100
AcDbVisualStyle
  2
FlatWithEdges
 70
     1
 71
     2
 72
     1
 73
     1
 90
        2
 40
-0.6
 41
30.0
 62
     5
 63
     7
421
 16777215
 74
     1
 91
        4
 64
     7
 65
   257
 75
     1
175
     1
 42
1.0
 92
        0
 66
   257
 43
1.0
 76
     1
 77
     6
 78
     2
 67
     7
 79
     5
170
     0
171
     0
290
     0
174
     0
 93
       13
 44
0.0
173
     0
291
     1
 45
0.0
1001
ACAD
1000
AcDbSavedByObjectVersion
1070
     0
  0
VISUALSTYLE
  5
2D
102
{ACAD_REACTORS
330
2A
102
}
330
2A
100
AcDbVisualStyle
  2
Gouraud
 70
     2
 71
     2
 72
     2
 73
     1
 90
        2
 40
-0.6
 41
30.0
 62
     5
 63
     7
421
 16777215
 74
     0
 91
        4
 64
     7
 65
   257
 75
     1
175
     1
 42
1.0
 92
        0
 66
     7
 43
1.0
 76
     1
 77
     6
 78
     2
 67
     7
 79
     5
170
     0
171
     0
290
     0
174
     0
 93
       13
 44
0.0
173
     0
291
     1
 45
0.0
1001
ACAD
1000
AcDbSavedByObjectVersion
1070
     0
  0
VISUALSTYLE
  5
2E
102
{ACAD_REACTORS
330
2A
102
}
330
2A
100
AcDbVisualStyle
  2
GouraudWithEdges
 70
     3
 71
     2
 72
     2
 73
     1
 90
        2
 40
-0.6
 41
30.0
 62
     5
 63
     7
421
 16777215
 74
     1
 91
        4
 64
     7
 65
   257
 75
     1
175
     1
 42
1.0
 92
        0
 66
   257
 43
1.0
 76
     1
 77
     6
 78
     2
 67
     7
 79
     5
170
     0
171
     0
290
     0
174
     0
 93
       13
 44
0.0
173
     0
291
     1
 45
0.0
1001
ACAD
1000
AcDbSavedByObjectVersion
1070
     0
  0
VISUALSTYLE
  5
38
102
{ACAD_REACTORS
330
2A
102
}
330
2A
100
AcDbVisualStyle
  2
Linepattern
 70
    14
 71
     2
 72
     2
 73
     0
 90
        0
 40
-0.6
 41
-30.0
 62
     5
 63
     7
421
 16777215
 74
     1
 91
        4
 64
     7
 65
   257
 75
     7
175
     7
 42
1.0
 92
        8
 66
     7
 43
1.0
 76
     1
 77
     6
 78
     2
 67
     7
 79
     5
170
     0
171
     0
290
     0
174
     0
 93
        1
 44
0.0
173
     0
291
     1
 45
0.0
1001
ACAD
1000
AcDbSavedByObjectVersion
1070
     0
  0
VISUALSTYLE
  5
33
102
{ACAD_REACTORS
330
2A
102
}
330
2A
100
AcDbVisualStyle
  2
Realistic
 70
     8
 71
     2
 72
     2
 73
     0
 90
        0
 40
-0.6
 41
-30.0
 62
     5
 63
     7
421
 16777215
 74
     1
 91
        0
 64
     7
 65
   257
 75
     1
175
     1
 42
1.0
 92
        8
 66
     8
424
  7895160
 43
1.0
 76
     1
 77
     6
 78
     2
 67
     7
 79
     5
170
     0
171
     0
290
     0
174
     0
 93
       13
 44
0.0
173
     0
291
     0
 45
0.0
1001
ACAD
1000
AcDbSavedByObjectVersion
1070
     0
  0
VISUALSTYLE
  5
37
102
{ACAD_REACTORS
330
2A
102
}
330
2A
100
AcDbVisualStyle
  2
Thicken
 70
    13
 71
     2
 72
     2
 73
     0
 90
        0
 40
-0.6
 41
-30.0
 62
     5
 63
     7
421
 16777215
 74
     1
 91
        4
 64
     7
 65
   257
 75
     1
175
     1
 42
1.0
 92
       12
 66
     7
 43
1.0
 76
     1
 77
     6
 78
     2
 67
     7
 79
     5
170
     0
171
     0
290
     0
174
     0
 93
        1
 44
0.0
173
     0
291
     1
 45
0.0
1001
ACAD
1000
AcDbSavedByObjectVersion
1070
     0
  0
ENDSEC
  0
EOF
